Oops, an error
Loading. Please wait.

Xo bass

version 1
version 1

Whole song

Interactive

4,978 views 1 this week
3 commentsread comments
1 2 3 4 5
x 7
add to favorites
×
Save as Personal and add changes to this tab that will be seen only by you. Learn more ›
×
You can save this tab as Personal to edit and correct it or add notes. All changes will be seen only by you. Learn more »
launch autoscroll
font size
0
reset
guitar tuner
edit
Autoscroll
slow
fast
+/-
esc
set tempo
stop
Author
-----------------------------------------------------------------------------
			     Xo - Fall Out Boy
-----------------------------------------------------------------------------
Tabbed by:
Email:

Chorus x2 (0:18 until 0:33) 
G|---------------------------------------------------------------------------|
D|---------------------------------------------------------------------------|
A|-------------------2-4-5-4-------------------------------------------------|
E|-33333333-00000000---------5555-2222-------------------------------------|

Pre Verse x1 (0:33 until 0:40)
G|---------7-7-7-7-6---------------------------------------------------------|
D|-------7-----------7-------------------------------------------------------|
A|-555-7---------------------------------------------------------------------|
E|---------------------------------------------------------------------------|

Verse x4 (0:40 until 1:09) 
G|---------------------------------------------------------------------------|
D|---------------------------------------------------------------------------|
A|----------55555555---------------------------------------------------------|
E|-77777777----------00000000-77777777---------------------------------------|

Pre Chorus (1:09 until 1:24)  (>> Strum, you'll hear the change)
G|---------------------------------------------------------------------------|
D|---------------------------------------------------------------------------|
A|-2>>-----------2>>-----------2>>-------------------------------------------|
E|-----3333-0000-----3333-0000-----3-----------------------------------------|

Chorus x2 (1:27 until 1:42)
Pre Verse x1 (1:42 until 1:49)
Verse x3 (1:49 until 2:20)

Verse  x1 (2:11 until 2:20)
G|---------------------------------------------------------------------------|
D|---------------------------------------------------------------------------|
A|---------5555555555555555--------------------------------------------------|
E|-7777777------------------55555555-----------------------------------------|

Bridge x1 (2:20 until 3:02)
G|---------------------------------------------------------------------------|
D|---------------------------------------------------------------------------|
A|-REST-----2>>-----------5>>>>----------------------------------------------|
E|------3>>-----0>>-3>>>>-------3>>>>----------------------------------------|

Bridge Continued (3:02 until End)
G|---------------------------------------------------------------------------|
D|---------------------------------------------------------------------------|
A|-2>>-----2>>-----2>>-------------------------------------------------------|
E|-----0>>-----0>>-----0>>-3~------------------------------------------------|

`ring out

            
            
Suggest correction
Creating personal tab
Creating personal tab
You can edit any tab online and save it as your Personal.

You can edit, replace or remove any tab part or add personal notes – all changes will be seen only by you.

Personal tabs can be accessed anytime from any device, even offline.
Learn more »
comments
print report bad tab
3 comments total.
0 reply
boyan89 812 Mar 31, 2006 03:46 PM

i take no credit for this i just copied of somewhere so u guys can have it here

+1 reply
guitarmaniac17 106 Apr 03, 2006 09:04 PM

If you're gonna copy, say where you copied it from.

+1 reply
Broadcast 10 Jul 02, 2007 09:59 AM

Good, but you copied so you deserve no credit... maybe I'll lower the rating, jkjk, but seriously, like guitarmaniac17 said, say where you got it from.

guest
You may want to rate the tab now too:
select rating
Wanna post a correction for this tab? Suggest correction