Oops, an error
Loading. Please wait.

Young And Menace chords

version 1
version 1

Whole song

  • Newly revised. Includes correct tuning and both parts arranged for one guitar.
  • Added capo to simplify playing, corrected chord al... Show more
  • This is a simple tab of the new song.
6,316 views 21 this week
1 commentread comment
1 2 3 4 5
x 8
add to favorites
×
Save as Personal and add changes to this tab that will be seen only by you. Learn more ›
×
You can save this tab as Personal to edit and correct it or add notes. All changes will be seen only by you. Learn more »
launch autoscroll
font size
0
reset
transpose
0
reset
simplify chords
display chords
guitar tuner
edit
Autoscroll
slow
fast
+/-
esc
set tempo
stop
About this tab version
Newly revised. Includes correct tuning and both parts arranged for one guitar. Was this info helpful? Yes No
Strumming Is this strumming pattern correct? Yes No
Verse and Pre-Chorus 109 bpm
1
2
3
4
5
6
7
8
9
10
11
12
13
14
15
16
Listen
Fall Out Boy
"Young and Menace"

Drop-D tuning.

 
  Bb5  Gb/Db Eb5  Eb4  Ebm  Ebm7 Ebm6
e|------------------------------------|
B|------2-------------------2----1----|
G|(3)---3---------1---------3----3----|
D|-3----4----1----1----4----1----1----|
A|-1----4----1----1----1----1----1----|
E|-----------1----1----1----1----1----|


[Intro]
  Bb5              Gb/Db            Eb5              Ebsus4  Ebm
E|----------------|----------------|----------------|----------------|
B|----------------|----------------|----------------|----------------|
G|----------------|----------------|----------------|----------------|
D|----------------|----------------|----------------|6~------4~------|
A|13~-----------\-|9~------------\-|6~--------------|----------------|
D|----------------|----------------|----------------|----------------|
 |
E|----------------|----------------|----------------|----------------|
B|----------------|----------------|----------------|----------------|
G|----------------|3---------------|----------------|----------------|
D|3---------------|4---------------|1---------------|1-------1-------|
A|1---------------|4---------------|1---------------|1-------1-------|
D|----------------|----------------|1---------------|1-------1-------|


[Verse 1]
  Bb5              Gb/Db            Eb5              Ebsus4  Ebm
E|----------------|----------------|----------------|----------------|
B|----------------|----------------|----------------|----------------|
G|----------------|----------------|----------------|----------------|
D|----------------|----------------|----------------|6~------4~------|
A|13~-----------\-|9~------------\-|6~--------------|----------------|
D|----------------|----------------|----------------|----------------|
 |
E|----------------|----------------|----------------|----------------|
B|----------------|----------------|----------------|----------------|
G|----------------|3---------------|----------------|----------------|
D|3---------------|4---------------|1---------------|1-------1-------|
A|1---------------|4---------------|1---------------|1-------1-------|
D|----------------|----------------|1---------------|1-------1-------|

  Bb5              Gb/Db            Eb5              Ebm7  Ebm
E|----------------|----------------|----------------|----------------|
B|----------------|----------------|----------------|----------------|
G|----------------|----------------|----------------|6~------5~------|
D|----------------|----------------|----------------|----------------|
A|13~-----------\-|9~------------\-|6~--------------|----------------|
D|----------------|----------------|----------------|----------------|
 |
E|----------------|----------------|----------------|----------------|
B|----------------|2---------------|----------------|----------------|
G|----------------|3---------------|----------------|----------------|
D|3---------------|4---------------|1---------------|1-------1-------|
A|1---------------|4---------------|1---------------|1-------1-------|
D|----------------|----------------|1---------------|1-------1-------|

Bb5                     Gb/Db       Ebm  Eb4 Ebm
We've gone way too fast for way too long
            Bb5               Gb/Db             Ebm Ebm7 Ebm6
And we were never supposed to make it half this far
                    Bb5   Gb/Db              Ebm
And I lived so much life, lived so much life 
                          Eb4             Ebm
I think that God is gonna have to kill me twice
Bb5                   Gb/Db               Ebm
Kill me twice like my name was Nikki Sixx
                                Ebm7          Ebm6
I woke up in my shoes again but somewhere you exist singing


[Pre-Chorus]
     Bb5       Gb/Db                Ebm                Eb4     Ebm
Oops I, did it again, I forgot what I was losing my mind about
           Bb5               Gb/Db                Ebm
Oh, I only wrote this down to make you press rewind
N.C.
And send a message that I was young and a menace


[Chorus]
  Bb5              Gb5
E|--------------------|
B|--------------------|
G|--------------------|
D|--------------------|
A|--------------------|
D|-10h11p10--8--6--8--|

Bb5                  Gb5     Eb5
   Ay, ay, young and menace!
Bb5                  Gb5     Eb5
   Ay, ay, young and menace!
Bb5                  Gb5     Eb5
   Ay, ay, young and menace!
Bb5                  Gb5     Eb5
   Ay, ay, young and menace!


[Verse 2]
     Bb5                  Gb/Db   Ebm
Woke up on the wrong side of reality
              Bb5                 Gb/Db                 Ebm  Eb4 Ebm
And there's a madness that's just coursing right through me
       Bb5              Gb/Db
And as far as the time, far as the time
Ebm                               Ebm7              Ebm6
   Not sure I'm there yet but I'm searching out the ride

  Gb/Db      Ebm  Ebm7           Ebm6 
e|-------0~-----|-----13-12~-------|
B|-----6--------|--11--------------|
G|-----------6~-|------------------| Fills 
D|---8----------|-------------11~--| 
A|--------------|------------------|
D|--------------|------------------|


[Pre-Chorus]
Bb5             Gb/Db               Ebm                 Eb4    Ebm
Oops I, did it again, I forgot what I was losing my mind about
           Bb5                Gb/Db           Ebm
Oh, I only wrote this down to make you press rewind
                              Ebm7        Ebm6
And send a message that I was young and a menace


[Chorus]
Bb5                  Gb5     Eb5
   Ay, ay, young and menace!
Bb5                  Gb5     Eb5
   Ay, ay, young and menace!


[Bridge]
Bb5                  Gb/Db
If I am off the deep end
         Ebm                     Eb4
I'm just here to become the best yet
Ebm      Bb5                      Gb/Db
I'm just here for the psych assessment
         Ebm                 Ebm7 Ebm6 
I'm just here for the, for the... 

Fall!


[Chorus]
Bb5                  Gb5     Eb5
   Ay, ay, young and menace!
Bb5                  Gb5     Eb5
   Ay, ay, young and menace!

e|-------------|
B|-------------|
G|13~~---------| Dual guitar
D|11~~---------| sting
A|-------------|
E|-------------|

Bb5                  Gb5     Eb5
   Ay, ay, young and menace!
Bb5                  Gb5     Eb5
   Ay, ay, young and menace!
Bb5                  Gb5     Eb5
   Ay, ay, young and menace!
Bb5                  Gb5     Eb5
   Ay, ay, young and menace!
Bb5                  Gb5     Eb5
   Ay, ay, young and menace!
Bb5                  Gb5     Eb5
   Ay, ay, young and menace!


[Outro]
Bb5                Gb/Db            Ebm  Eb4 Ebm
We've gone way too fast for way too long



***********************************
| h   Hammer-on
| p   Pull-off
| ()  Optional chord note
| ~   Vibrato
***********************************

            
            
Suggest correction
Creating personal tab
Creating personal tab
You can edit any tab online and save it as your Personal.

You can edit, replace or remove any tab part or add personal notes – all changes will be seen only by you.

Personal tabs can be accessed anytime from any device, even offline.
Learn more »
comments
print report bad tab
1 comment total.
0 reply
ljeanh 43 Apr 28, 2017 03:15 PM

👍

guest
You may want to rate the tab now too:
select rating
Wanna post a correction for this tab? Suggest correction