Oops, an error
Loading. Please wait.

Losin It tab

2,130 views 1 this week
2 commentsread comments
1 2 3 4 5
x 4
add to favorites
×
Save as Personal and add changes to this tab that will be seen only by you. Learn more ›
×
You can save this tab as Personal to edit and correct it or add notes. All changes will be seen only by you. Learn more »
launch autoscroll
font size
0
reset
how to read this tab
guitar tuner
edit
Autoscroll
slow
fast
+/-
esc
set tempo
stop
Author
-------------------------------------------------------------------------------
                             Losin' It - Fallbrooke
-------------------------------------------------------------------------------
Tabbed by: Krysta (hellokrysta)
Tuning: Standard.

First tab. Bare with me.
(THANKS One-x- FOR MAKING THE VERSE AND CHORUS LESS COMPLICATED! :D)


INTRO:
e|---------------------------------------------------------------------------|
B|------------------------------13-------------------------------------------|
G|-------------------------10--------12---x3------12/14--x4------------------|
D|----------------------12----12--12-----------------------------------------|
A|---------------------------------------------------------------------------|
E|---------------------------------------------------------------------------|

e|-------------------------------------------------------12--12--------------|
B|-13--13--------------13--13------13--13------------------------------------|
G|---14--14--------------14--14------14--14----------------14--14------------|
D|----------12-14-15------------------------12--14--15-----------------------|
A|---------------------------------------------------------------------------|
E|---------------------------------------------------------------------------|

e|-----------------------------------------------------------------------------|
B|-13--13-----------13--13-------13--13----------------------------------------|
G|---14--14-----------14--14-------14--14-------12/14-12--12/14-12-------------|
D|----------12-14-15----------------------12--15-------------------------------|
A|-----------------------------------------------------------------------------|
E|-----------------------------------------------------------------------------|

VERSE:
We've been talking from different states..
e|--------------------------------------------------------------------------|
B|--------------------------------------------------------------------------|
G|--------------------------------------------------------------------------|
D|-----12----------8----------3-----------5---------------------------------|
A|-----12----x8----8----x8----3----x13----5--x3-----------------------------|
E|-----10----------6----------1-----------3---------------------------------|

e|----------------------------------------------------------------------------|
B|----------------------------------------------------------------------------|
G|----------------------------------------------------------------------------|
D|-----12----------8----------3-----------------------------------------------|
A|-----12----x8----8----x8----3----x16----------------------------------------|
E|-----10----------6----------1-----------------------------------------------|

e|--------------------------------------------------------------------------|
B|--------------------------------------------------------------------------|
G|--------------------------------------------------------------------------|
D|-----12----------8----------3-----------5---------------------------------|
A|-----12----x8----8----x8----3----x13----5--x3-----------------------------|
E|-----10----------6----------1-----------3---------------------------------|


e|----------------------------------------------------------------------------|
B|----------------------------------------------------------------------------|
G|----------------------------------------------------------------------------|
D|-----12----------8----------3-----------------------------------------------|
A|-----12----x8----8----x8----3----x8-----------------------------------------|
E|-----10----------6----------1-----------------------------------------------|


CHORUS: (Play twice)
Oh, I know we've never met...
e|--------------------------------------------------------------------------|
B|--------------------------------------------------------------------------|
G|--------------------------------------------------------------------------|
D|-----8--------3--------10-------8--------3--------12--------10------------|
A|-----8---x8---3---x8---8---x16 -8---x8---3---x8---12---x8---8---x8--------|
E|-----6--------1--------8--------6--------1--------10--------8-------------|

BRIDGE
e|------------------------------------------------------12--------|
B|-13--13-------------13--13---------13--13-----------------13----|
G|---14--14-------------14--14---------14--14-------------14--14--|
D|-----------12-14-15--------------------------12-14-15-----------|
A|----------------------------------------------------------------|
E|----------------------------------------------------------------|


PLAY CHORUS AFTER BRIDGE.

then..

e|-----------------------------------------------------12-------------------|
B|-13--13-------------13--13--------13--13-----------------13---------------|
G|---14--14-------------14--14--------14--14-------------14--14-------------|
D|-----------12-14-15-------------------------12-14-15----------------------|
A|--------------------------------------------------------------------------|
E|--------------------------------------------------------------------------|

e|--------------------------------------------------------------------------|
B|-13--13-------------13--13-------13--13-----------------------------------|
G|---14--14-------------14--14-------14--14--------12/14--12----12/14--12---|
D|-----------12-14-15------------------------12-15--------------------------|
A|--------------------------------------------------------------------------|
E|--------------------------------------------------------------------------|


| /  slide up
| \  slide down
| h  hammer-on
| p  pull-off
| ~  vibrato
| +  harmonic
| x  Mute note
===============================================================================

            
            
Suggest correction
Creating personal tab
Creating personal tab
You can edit any tab online and save it as your Personal.

You can edit, replace or remove any tab part or add personal notes – all changes will be seen only by you.

Personal tabs can be accessed anytime from any device, even offline.
Learn more »
comments
print report bad tab
2 comments total.
0 reply
art_fire2005 73 May 10, 2011 01:49 PM

They Play on D-G-C-F-A-D

0 reply
hellokrysta 112 May 25, 2011 08:06 PM

Yeah, I made this with barely a year of guitar experience, and had no clue what that was.. But this works well enough for me.. hhaha

guest
You may want to rate the tab now too:
select rating
Wanna post a correction for this tab? Suggest correction