Oops, an error
Loading. Please wait.

Alone bass

version 1
version 1

Whole song

Interactive

2,842 views 1 this week
4 commentsread comments
1 2 3 4 5
x 3
add to favorites
×
Save as Personal and add changes to this tab that will be seen only by you. Learn more ›
×
You can save this tab as Personal to edit and correct it or add notes. All changes will be seen only by you. Learn more »
launch autoscroll
font size
0
reset
guitar tuner
edit
Autoscroll
slow
fast
+/-
esc
set tempo
stop
0:12
G|-----------------------------------------------------------------|
D|-0-----------------------3---------------------------------------|
A|---------------------------------0-----------------------3-------|
D|-----------------------------------------------------------------|
   1 + 2 + 3 + 4 + 1 + 2 + 3 + 4 + 1 + 2 + 3 + 4 + 1 + 2 + 3 + 4 +

G|-----------------------------------------------------------------|
D|-0-----------------------3---------------------------------------|
A|---------------------------------0-------------------------------|
D|-----------------------------------------------------------------|
   1 + 2 + 3 + 4 + 1 + 2 + 3 + 4 + 1 + 2 + 3 + 4 + 1 + 2 + 3 + 4 +

0:25
G|-----------------------------------------------------------------|
D|-----------------------------------------------------------------|
A|---------------------------------1-1-1---1-----1-----1-------1---|
D|-0-0-0---0-----0-----0---0-5-5-5---------------------------------|
   1 + 2 + 3 + 4 + 1 + 2 + 3 + 4 + 1 + 2 + 3 + 4 + 1 + 2 + 3 + 4 +

G|-----------------------------------------------------------------|
D|-----------------------------------------------------------------|
A|-3-3---3-3-----3-3---3---3-------1-1-1-1-1---1---3-3-3-3-3-0-0-0-|
D|---------------------------5-5-5---------------------------------|
   1 + 2 + 3 + 4 + 1 + 2 + 3 + 4 + 1 + 2 + 3 + 4 + 1 + 2 + 3 + 4 +

Rest

0:51
G|-----------------------------------------------------------------|
D|-0-----------------------3---------------------------------------|
A|---------------------------------0-----------------------3-------|
D|-----------------------------------------------------------------|
   1 + 2 + 3 + 4 + 1 + 2 + 3 + 4 + 1 + 2 + 3 + 4 + 1 + 2 + 3 + 4 +

G|-----------------------------------------------------------------|
D|-0-----------------------3---------------------------------------|
A|---------------------------------0-------------------------------|
D|-----------------------------------------------------------------|
   1 + 2 + 3 + 4 + 1 + 2 + 3 + 4 + 1 + 2 + 3 + 4 + 1 + 2 + 3 + 4 +

1:03
G|-----------------------------------------------------------------|
D|-----------------------------------------------------------------|
A|-----------------------------------------------------------------|
D|-000-------00-00-----0-----------000-000---00-00-----0-----00-00-|
   1 + 2 + 3 + 4 + 1 + 2 + 3 + 4 + 1 + 2 + 3 + 4 + 1 + 2 + 3 + 4 +

G|-----------------------------------------------------------------|
D|-----------------------------------------------------------------|
A|-----------------------------------------------------------------|
D|-000-------00-00-----0-----------000-000---00-00-----0-----------|
   1 + 2 + 3 + 4 + 1 + 2 + 3 + 4 + 1 + 2 + 3 + 4 + 1 + 2 + 3 + 4 +

1:16
G|------------------------------------------------------------------|
D|o-----------------------------------------------------------------|
A|o---------------------------------1-1-1---1-----1-----1-------1---|
D|--0-0-0---0-----0-----0---0-5-5-5---------------------------------|
    1 + 2 + 3 + 4 + 1 + 2 + 3 + 4 + 1 + 2 + 3 + 4 + 1 + 2 + 3 + 4 +

G|------------------------------------------------------------------|
D|-----------------------------------------------------------------o|
A|-3-3---3-3-----3-3---3---3-------1-1-1-1-1---1---3-3-3-3-3-0-0-0-o|
D|---------------------------5-5-5----------------------------------|
   1 + 2 + 3 + 4 + 1 + 2 + 3 + 4 + 1 + 2 + 3 + 4 + 1 + 2 + 3 + 4 +

Rest

1:54
G|-----------------------------------------------------------------|
D|-0-----------------------3---------------------------------------|
A|---------------------------------0-----------------------3-------|
D|-----------------------------------------------------------------|
   1 + 2 + 3 + 4 + 1 + 2 + 3 + 4 + 1 + 2 + 3 + 4 + 1 + 2 + 3 + 4 +

G|-----------------------------------------------------------------|
D|-0-----------------------3---------------------------------------|
A|---------------------------------0-------------------------------|
D|-----------------------------------------------------------------|
   1 + 2 + 3 + 4 + 1 + 2 + 3 + 4 + 1 + 2 + 3 + 4 + 1 + 2 + 3 + 4 +

2:07
G|-----------------------------------------------------------------|
D|-----------------------------------------------------------------|
A|-----------------------------------------------------------------|
D|-000-------00-00-----0-----------000-000---00-00-----0-----00-00-|
   1 + 2 + 3 + 4 + 1 + 2 + 3 + 4 + 1 + 2 + 3 + 4 + 1 + 2 + 3 + 4 +

G|-----------------------------------------------------------------|
D|-----------------------------------------------------------------|
A|-----------------------------------------------------------------|
D|-000-------00-00-----0-------------------------------------------|
   1 + 2 + 3 + 4 + 1 + 2 + 3 + 4 + 1 + 2 + 3 + 4 + 1 + 2 + 3 + 4 +

2:20
G|------------------------------------------------------------------|
D|o-----------------------------------------------------------------|
A|o---------------------------------1-1-1---1-----1-----1-------1---|
D|--0-0-0---0-----0-----0---0-5-5-5---------------------------------|
    1 + 2 + 3 + 4 + 1 + 2 + 3 + 4 + 1 + 2 + 3 + 4 + 1 + 2 + 3 + 4 +

G|------------------------------------------------------------------|
D|-----------------------------------------------------------------o|
A|-3-3---3-3-----3-3---3---3-------1-1-1-1-1---1---3-3-3-3-3-0-0-0-o|
D|---------------------------5-5-5----------------------------------|
   1 + 2 + 3 + 4 + 1 + 2 + 3 + 4 + 1 + 2 + 3 + 4 + 1 + 2 + 3 + 4 +

Rest

3:00
G|-----------------------------------------------------------------|
D|-----------------------------------------------------------------|
A|-----------------------------------------------------------------|
D|-00--------00-00-----0-----------000-000---00-00-----0-----00-00-|
   1 + 2 + 3 + 4 + 1 + 2 + 3 + 4 + 1 + 2 + 3 + 4 + 1 + 2 + 3 + 4 +

G|-----------------------------------------------------------------|
D|-----------------------------------------------------------------|
A|-----------------------------------------------------------------|
D|-00--------00-00-----0-----------000-000---00-00-----0-----00-00-|
   1 + 2 + 3 + 4 + 1 + 2 + 3 + 4 + 1 + 2 + 3 + 4 + 1 + 2 + 3 + 4 +

3:13
G|-----------------------------------------------------------------|
D|-----------------------------------------------------------------|
A|-----------------------------------------------------------------|
D|-000000000---------0000000-------000000000---0-----0000000-------|
   1 + 2 + 3 + 4 + 1 + 2 + 3 + 4 + 1 + 2 + 3 + 4 + 1 + 2 + 3 + 4 +

G|-----------------------------------------------------------------|
D|-----------------------------------------------------------------|
A|-----------------------------------------------------------------|
D|-000000000---------0000000-------000000000---0-----0000000-------|
   1 + 2 + 3 + 4 + 1 + 2 + 3 + 4 + 1 + 2 + 3 + 4 + 1 + 2 + 3 + 4 +

G|-----------------------------------------------------------------|
D|-----------------------------------------------------------------|
A|-----------------------------------------------------------------|
D|-000000000---------0000000---------------0---0-------0---0-0-0---|
   1 + 2 + 3 + 4 + 1 + 2 + 3 + 4 + 1 + 2 + 3 + 4 + 1 + 2 + 3 + 4 +

3:32
G|------------------------------------------------------------------|
D|o-----------------------------------------------------------------|
A|o---------------------------------1-1-1---1-----1-----1-------1---|
D|--0-0-0---0-----0-----0---0-5-5-5---------------------------------|
    1 + 2 + 3 + 4 + 1 + 2 + 3 + 4 + 1 + 2 + 3 + 4 + 1 + 2 + 3 + 4 +

G|------------------------------------------------------------------|
D|-----------------------------------------------------------------o|
A|-3-3---3-3-----3-3---3---3-------1-1-1-1-1---1---3-3-3-3-3-0-0-0-o|
D|---------------------------5-5-5----------------------------------|
   1 + 2 + 3 + 4 + 1 + 2 + 3 + 4 + 1 + 2 + 3 + 4 + 1 + 2 + 3 + 4 +

3:58
G|-----------------------------------------------------------------|
D|-----------------------------------------------------------------|
A|---------------------------------1-1-1---1-1-1---1-1-1---1-1-1-1-|
D|-0-0-0---0-0-0---0-0-0---0-5-5-5---------------------------------|
   1 + 2 + 3 + 4 + 1 + 2 + 3 + 4 + 1 + 2 + 3 + 4 + 1 + 2 + 3 + 4 +

G|-----------------------------------------------------------------|
D|-----------------------------------------------------------------|
A|-3-3-3---3-3-3---3-3-3---3-------1-1-1---1-1-1---3-3-3---3-0-0-0-|
D|---------------------------5-5-5---------------------------------|
   1 + 2 + 3 + 4 + 1 + 2 + 3 + 4 + 1 + 2 + 3 + 4 + 1 + 2 + 3 + 4 +

G|-----------------------------------------------------------------|
D|-----------------------------------------------------------------|
A|---------------------------------1-1-1-1-1-1-1-1-1-1-1-1-1-1-1-1-|
D|-0-0-0-0-0-0-0-0-0-0-0-0-0-5-5-5---------------------------------|
   1 + 2 + 3 + 4 + 1 + 2 + 3 + 4 + 1 + 2 + 3 + 4 + 1 + 2 + 3 + 4 +

G|-----------------------------------------------------------------|
D|-----------------------------------------------------------------|
A|-3-3-3-3-3-3-3-3-3-3-3-3-3-------1-1-1-1-1-1-1-1-3-3-0-0-3-3-0-0-|
D|---------------------------5-5-5---------------------------------|
   1 + 2 + 3 + 4 + 1 + 2 + 3 + 4 + 1 + 2 + 3 + 4 + 1 + 2 + 3 + 4 +
Tabbed by Dave Vucko

Video of it: http://www.youtube.com/watch?v=To1GlxQKYZE

            
            
Suggest correction
Creating personal tab
Creating personal tab
You can edit any tab online and save it as your Personal.

You can edit, replace or remove any tab part or add personal notes – all changes will be seen only by you.

Personal tabs can be accessed anytime from any device, even offline.
Learn more »
Give kudos to tab author, rate the tab!
1 2 3 4 5
comments
print report bad tab
4 comments total. Showing first comments.
0 reply
Robert2511 321 Dec 19, 2014 06:24 AM

No offence against the other tabber but I feel like that one has got higher ratings cause it is easier to read and more convenient where as in my opinion this tab is actually the more accurate one

0 reply
Robert2511 321 Dec 21, 2014 02:00 PM

The only thing I would do is play this on my 5 string and turn the 5th string to C and play the breakdowns on it

+1 reply
Robert2511 321 Dec 22, 2014 08:09 AM

Ignore my last comment I got mixed up

guest
You may want to rate the tab now too:
select rating
Wanna post a correction for this tab? Suggest correction