Oops, an error
Loading. Please wait.

Bad Girls Club bass

version 3
version 3

Whole song

Interactive

136 views 1 this week
5 commentsread comments
1 2 3 4 5
x 4
add to favorites
×
Save as Personal and add changes to this tab that will be seen only by you. Learn more ›
×
You can save this tab as Personal to edit and correct it or add notes. All changes will be seen only by you. Learn more »
launch autoscroll
font size
0
reset
guitar tuner
edit
Autoscroll
slow
fast
+/-
esc
set tempo
stop
Every four lines of lyrics equals one portion of the bass per section. Hope it's not too long of a tab. If it
is, I apologize. Thought there might be a good Standard version of the bass in the song elsewhere.

Intro: G|-----------------------------------------------------|
       D|-----------------------------------------------------|
       A|-5~-55~-5-5-55~-0---------------------------------5~-|
       E|------------------3~-33~-3-3-33~-5-7~-77-75~-55~-5---|

          I met a girl, and I really thought she liked me.

          I truly thought that I had met the one.

          It was a fail to no avail.

          I'm just another victim of the Bad Girls Club

       G|-------------------------------------------------------|
       D|-------------------------------------------------------|
       A|-555555555555550~-----------------------------------5~-|
       E|------------------3333333333333335~-7777777755555555---|

          She's like a witch because her spell is hypnotizing.

          She made me drink a potion just to fall in love.

          She got me drunk and tipsy off her love.

          I'm just another victim of the Bad Girls Club.

Pre-Verse: G|-----------------------------------------------------------------|
           D|-----------------------------------------------------------------|
           A|-5~-55~-5-5-55~-0---------------------------------5~-55~-5-5-55~-|
           E|------------------3~-33~-3-3-33~-5-7~-77-75~-55~-5---------------|

              Hey!

              Hey!

              Hey!

              Hey!

Verse: G|---------------------------------------------------------------|
       D|---------------------------------------------------------------| X2
       A|-555555555555550~-----------------------------------555555555~-|
       E|------------------3333333333333335~-7777777755555555-----------|

          She's always blowing up my phone.

          I really wish that she'd leave me alone.

          I gotta change my number; hard for me to slumber

          When she's outside my home.

          She called the cops.

          And made it seem like I was mean.

          She's not your average lady. She's fucking crazy.

          Spelled C-U-N-T (bitch!)

Pre-Chorus: G|------------------|
            D|------------------|
            A|-------555555555~-|
            E|-7~-5~------------|

               And after all

               The rise and fall. 

               You're not worth my time.

Chorus: G|----------------------------------|
        D|----------------------------------| X3
        A|-55555555--------------------7777-|
        E|---------33333333000000005555-----|

           I'm c-c-calling it quits

           Right now.

           This time

           You're playing games and all 

           We do

           Is fight.

           It's getting late so

           Ollie, Ollie, Ollie 

           Oxen free.

           All the Bad Girls come 

           chill with me.

        G|--------------------|
        D|--------------------|
        A|-55555555-----------|
        E|---------333333330~-|

           Your love's a drug. 

           You got me on the run.

           I'm just another victim of the Bad Girls Club

Pre-Verse: G|-----------------------------------------------------------------|
           D|-----------------------------------------------------------------|
           A|-5~-55~-5-5-55~-0---------------------------------5~-55~-5-5-55~-|
           E|------------------3~-33~-3-3-33~-5-7~-77-75~-55~-5---------------|

              Hey!

              Hey!

              Hey!

              Hey!

Verse: G|---------------------------------------------------------------|
       D|---------------------------------------------------------------| X2
       A|-555555555555550~-----------------------------------555555555~-|
       E|------------------3333333333333335~-7777777755555555-----------|

          I'm always paranoid (Yeah, I'm paranoid)

          That she's somehow watching me.

          Follows me on Twitter asking if I miss her.

          #setmefree

          She Google's my name

          Just to keep some tabs on me.

          She's not your average lady. She's fucking crazy.

          Someone help me, please.

Pre-Chorus: G|------------------|
            D|------------------|
            A|-------555555555~-|
            E|-7~-5~------------|

               And after all

               The rise and fall. 

               You're not worth my time.

Chorus: G|----------------------------------|
        D|----------------------------------| X3
        A|-55555555--------------------7777-|
        E|---------33333333000000005555-----|

           I'm c-c-calling it quits

           Right now.

           This time

           You're playing games and all 

           We do

           Is fight.

           It's getting late so

           Ollie, Ollie, Ollie 

           Oxen free.

           All the Bad Girls come 

           chill with me.

        G|--------------------|
        D|--------------------|
        A|-55555555-----------|
        E|---------333333330~-|

           Your love's a drug. 

           You got me on the run.

           I'm just another victim of the Bad Girls Club

Bridge: G|----|
        D|----|
        A|-5~-|
        E|----|

           Alright alright alright.

           Settle down. Settle down.

           I need all my bad girls in the house tonight

           To help me do a cheer. It goes: 1, 2, 3, 4!

           Hey sexy boy, I got you wrapped around my finger.

           L-O-V-E really doesn't mean much.

           Your love is like a drug but it is not enough.

           Give me a B-A-D. We're the Bad Girls Club!

       G|---------------------------------------------------------------|
       D|---------------------------------------------------------------|
       A|-555555555555550~-----------------------------------555555555~-|
       E|------------------3333333333333335~-7777777755555555-----------|
          
          Hey sexy boy, I got you wrapped around my finger.

          L-O-V-E really doesn't mean much.

          Your love is like a drug but it is not enough.

          Give me a B-A-D. We're the Bad Girls Club! Yay!

Chorus: G|----------------------------------|
        D|----------------------------------| X3
        A|-55555555--------------------7777-|
        E|---------33333333000000005555-----|

           I'm c-c-calling it quits

           Right now.

           This time

           You're playing games and all 

           We do

           Is fight.

           It's getting late so

           Ollie, Ollie, Ollie 

           Oxen free.

           All the Bad Girls come 

           chill with me.

        G|--------------------|
        D|--------------------|
        A|-55555555-----------|
        E|---------333333330~-|

           Your love's a drug. 

           You got me on the run.

           I'm just another victim of the Bad Girls Club.

Outro: G|---------------------------------------------------------------|
       D|---------------------------------------------------------------|
       A|-555555555555550~-----------------------------------555555555~-|
       E|------------------3333333333333335~-7777777755555555-----------|

          Hey!

          Hey! I'm just another victim of the Bad Girls Club

          Hey!

          Hey! I'm just another victim of the Bad Girls Club (Ronnie!)
Suggest correction
Creating personal tab
Creating personal tab
You can edit any tab online and save it as your Personal.

You can edit, replace or remove any tab part or add personal notes – all changes will be seen only by you.

Personal tabs can be accessed anytime from any device, even offline.
Learn more »
comments
print report bad tab
5 comments total. Showing first comments.
0 reply
deathbycricket 221 Jan 27, 2016 06:29 PM

The layout is terrible and hard to read.
The song is actually in drop C and uses the dropped notes, so doesn't make sense in standard.

guest
You may want to rate the tab now too:
select rating
Wanna post a correction for this tab? Suggest correction