Oops, an error
Loading. Please wait.

Fashionably Late Bass Tab

version 2
version 2

Whole song

Interactive

2,170 views 3 this week
1 commentread comment
1 2 3 4 5
x 4
add to favorites
launch autoscroll
font size
0
reset
guitar tuner
Autoscroll
slow
fast
+/-
esc
set tempo
stop
Help us to improve Ultimate-Guitar.com Take our survey!
×
Author
Tuning
C G C F A D
F|-----------------------------------------------------------------|
C|-----------------------------------------------------------------|
G|-55--------------------------------------------------------------|
C|-----------------------------------------------------------------|
   1 2 3 4 1 2 3 4 1 2 3 4 1 2 3 4 1 2 3 4 1 2 3 4 1 2 3 4 1 2 3 4

F|-----------------------------------------------------------------|
C|-----------------------------------------------------------------|
G|-55----------------------------------------------33--------------|
C|-----------------------------------------------------------0-----|
   1 2 3 4 1 2 3 4 1 2 3 4 1 2 3 4 1 2 3 4 1 2 3 4 1 2 3 4 1 2 3 4

0:19
F|-----------------------------------------------------------------|
C|-----------------------------------------------------------------|
G|-5-5-5-551-1-1-113-3-3-33--------5-5-5-551-1-1-113-3-33-3--------|
C|-------------------------3-3-2-2-------------------------3---2---|
   1 2 3 4 1 2 3 4 1 2 3 4 1 2 3 4 1 2 3 4 1 2 3 4 1 2 3 4 1 2 3 4

Verse 0:28
F|-----------------------------------------------------------------|
C|-----------------------------------------------------------------|
G|-----------------0-0----00-0----01-1----11-1----1----------------|
C|-0-0----00-0----0--------------------------------3-3----33-3-----|
   1 2 3 4 1 2 3 4 1 2 3 4 1 2 3 4 1 2 3 4 1 2 3 4 1 2 3 4 1 2 3 4

F|-----------------------------------------------------------------|
C|-----------------------------------------------------------------|
G|-----------------0-0----00-0----01-1----11-1----13-3----33-3-----|
C|-0-0----00-0----0------------------------------------------------|
   1 2 3 4 1 2 3 4 1 2 3 4 1 2 3 4 1 2 3 4 1 2 3 4 1 2 3 4 1 2 3 4

Pre Chorus 0:45
F|-----------------------------------------------------------------|
C|-----------------------------------------------------------------|
G|-11----------------------33--33--11----------------------33--33--|
C|-----------------33------------------------------33--------------|
   1 2 3 4 1 2 3 4 1 2 3 4 1 2 3 4 1 2 3 4 1 2 3 4 1 2 3 4 1 2 3 4

Chorus 0:54
F|-----------------------------------------------------------------|
C|-----------------------------------------------------------------|
G|-5-5----51-1----13-3----3--------5-5----51-1----13-3----3----7-\-|
C|-------------------------3-3-2-2-------------------------3-3-----|
   1 2 3 4 1 2 3 4 1 2 3 4 1 2 3 4 1 2 3 4 1 2 3 4 1 2 3 4 1 2 3 4

F|-----------------------------------------------------------------|
C|-----------------------------------------------------------------|
G|-5-5-5-551-1-1-113-3-3-33--------5-5-----1-1-----33--------------|
C|-------------------------3-3-2-2---------------------------------|
   1 2 3 4 1 2 3 4 1 2 3 4 1 2 3 4 1 2 3 4 1 2 3 4 1 2 3 4 1 2 3 4

Interlude 1:13
F|-----------------------------------------------------------------|
C|-----------------------------------------------------------------|
G|-5-5-5-551-1-1-113-3-3-33--------5-5-5-551-1-1-113-3-33-3-013013-|
C|-------------------------3-3-2-2-------------------------3-------|
   1 2 3 4 1 2 3 4 1 2 3 4 1 2 3 4 1 2 3 4 1 2 3 4 1 2 3 4 1 2 3 4

Verse 1:22
F|-----------------------------------------------------------------|
C|-----------------------------------------------------------------|
G|-5-5-\-\---------0-0----00-0----01-1----11-1----1------------5-\-|
C|---------0-0----0--------------------------------3-3----33-3-----|
   1 2 3 4 1 2 3 4 1 2 3 4 1 2 3 4 1 2 3 4 1 2 3 4 1 2 3 4 1 2 3 4

F|-----------------------------------------------------------------|
C|-----------------------------------------------------------------|
G|-----------------0-0----00-0----01-1----11-1----13-3----33-3-----|
C|-0-0----00-0----0------------------------------------------------|
   1 2 3 4 1 2 3 4 1 2 3 4 1 2 3 4 1 2 3 4 1 2 3 4 1 2 3 4 1 2 3 4

Pre Chorus 1:40
F|-----------------------------------------------------------------|
C|-----------------------------------------------------------------|
G|-11----------------------33--33--11----------------------33------|
C|-----------------33------------------------------33--------------|
   1 2 3 4 1 2 3 4 1 2 3 4 1 2 3 4 1 2 3 4 1 2 3 4 1 2 3 4 1 2 3 4

Chorus 1:50
F|-----------------------------------------------------------------|
C|-----------------------------------------------------------------|
G|-5-5----51-1----13-3----3--------5-5----51-1----13-3-3--3----7-\-|
C|-------------------------3-3-2-2-------------------------3-3-----|
   1 2 3 4 1 2 3 4 1 2 3 4 1 2 3 4 1 2 3 4 1 2 3 4 1 2 3 4 1 2 3 4

F|-----------------------------------------------------------------|
C|-----------------------------------------------------------------|
G|---------1-1-1-1-3-3-3-3-----------------1-1-1-1-3-3-3-3-4-4-4-4-|
C|-0-0-0-0-----------------3-3-2-2-0-0-0-0-------------------------|
   1 2 3 4 1 2 3 4 1 2 3 4 1 2 3 4 1 2 3 4 1 2 3 4 1 2 3 4 1 2 3 4

Bridge 2:07
F|-----------------------------------------------------------------|
C|-----------------------------------------------------------------|
G|-1-1-1-1-1-1-1-1---------3-3-3-3-1-1-1-1-1-1-1-1---------3---5---|
C|-----------------3-3-3-3-------------------------3-3-3-3---------|
   1 2 3 4 1 2 3 4 1 2 3 4 1 2 3 4 1 2 3 4 1 2 3 4 1 2 3 4 1 2 3 4

F|-------------------------------------------------------------------------------------|
C|-------------------------------------------------------------------------------------|
G|-1-1-1-1-1-1-1-1---------3-3-3-3-1-1-1-1-1-1-1-1-3-3-3-3-5-5-5-5-7-7-7-7/15-15-15-15-|
C|-----------------3-3-3-3-------------------------------------------------------------|
   1 2 3 4 1 2 3 4 1 2 3 4 1 2 3 4 1 2 3 4 1 2 3 4 1 2 3 4 1 2 3 4 1 2 3 4 1  2  3  4

Pre Chorus 2:27
F|-----------------------------------------------------------------|
C|-----------------------------------------------------------------|
G|-11----------------------33--33--11------------------------------|
C|-----------------33------------------------------3---------------|
   1 2 3 4 1 2 3 4 1 2 3 4 1 2 3 4 1 2 3 4 1 2 3 4 1 2 3 4 1 2 3 4

2:36
F|-----------------------------------------------------------------|
C|-----------------------------------------------------------------|
G|-55----------------------------------------------33--------------|
C|-----------------------------------------------------------------|
   1 2 3 4 1 2 3 4 1 2 3 4 1 2 3 4 1 2 3 4 1 2 3 4 1 2 3 4 1 2 3 4

Chorus 2:45
F|-----------------------------------------------------------------|
C|-----------------------------------------------------------------|
G|-5-5----51-1----13-3----3--------5-5----51-1----13-3----3----7-\-|
C|-------------------------3-3-2-2-------------------------3-3-----|
   1 2 3 4 1 2 3 4 1 2 3 4 1 2 3 4 1 2 3 4 1 2 3 4 1 2 3 4 1 2 3 4

F|-----------------------------------------------------------------|
C|-----------------------------------------------------------------|
G|---------1-1-1-1-3-3-3-3-----------------1-1-1-1-3-3-3-3-77777777|
C|-0-0-0-0-----------------3-3-2-2-0-0-0-0-------------------------|
   1 2 3 4 1 2 3 4 1 2 3 4 1 2 3 4 1 2 3 4 1 2 3 4 1 2 3 4 1 2 3 4

Outro Chorus 3:03
F|-----------------------------------------------------------------|
C|-----------------------------------------------------------------|
G|-5-5-5-551-1-1-113-3-3-33----------------1-1-1-1-3-3-13----------|
C|-------------------------3-3-2-2-0-0-0-0-----------------3-3-2-2-|
   1 2 3 4 1 2 3 4 1 2 3 4 1 2 3 4 1 2 3 4 1 2 3 4 1 2 3 4 1 2 3 4

F|-----------------------------------------------------------------|
C|-----------------------------------------------------------------|
G|-55-555-511-11-1-33-333-3----------------11-11-1-33-313----------|
C|-------------------------33-32-2-00-000-0----------------3---2---|
   1 2 3 4 1 2 3 4 1 2 3 4 1 2 3 4 1 2 3 4 1 2 3 4 1 2 3 4 1 2 3 4

Tabbed by Dave Vucko
Suggest correction
comments
print report bad tab
1 comment total.
0 reply
XxThreeCheersxX 12,269 Jun 29, 2013 11:28 PM

Awesome job, sounds very accurate

guest
You may want to rate the tab now too:
select rating
Wanna post a correction for this tab? Suggest correction