Oops, an error
Loading. Please wait.

Fashionably Late tab

version 3
version 3

Whole song

Interactive

964 views 6 this week
1 commentread comment
1 2 3 4 5
x 7
add to favorites
×
Save as Personal and add changes to this tab that will be seen only by you. Learn more ›
×
You can save this tab as Personal to edit and correct it or add notes. All changes will be seen only by you. Learn more »
launch autoscroll
font size
0
reset
how to read this tab
guitar tuner
edit
Autoscroll
slow
fast
+/-
esc
set tempo
stop
Author
Difficulty
If a section has just one main guitar part per set of lyrics, both lead and rhythm will play the same notes. 
My apologies if the tab is too lengthy. Quite the poppy song compared to their newer songs and albums.

Intro: e|-----|
       B|-----|
       G|-55~-|
       D|-55~-|
       A|-33~-|
       E|-----|

          It’s 9 o’clock on the dot, at the spot, and I’m hanging’ with her friends again.

          Great taste, beautiful place, and you’re fashionably late (Hey!)

       e|-----|
       B|-----|
       G|-55~-|
       D|-55~-|
       A|-33~-|
       E|-----|

          And I don’t wanna be that guy that makes you sad or makes you cry again.

          Without a doubt, sorry about

       e|-----|
       B|-----|
       G|-55~-|
       D|-55~-|
       A|-33~-|
       E|-----|

          Making out with your friends (Go!)

Lead Pre-Verse: e|---------------------------------------|
                B|------------------------------8-6---6~-|
                G|-5h7h8-5h7h8-5h7h8p5~-5h7h8p5-----8----|
                D|---------------------------------------|
                A|---------------------------------------|
                E|---------------------------------------|
          
                e|-----------------------------------|
                B|----------------------6-6-6--------|
                G|-5h7h8-5h7h8-5h7h8p5~------8-8~-7~-|
                D|-----------------------------------|
                A|-----------------------------------|
                E|-----------------------------------|

Rhythm Pre-Verse: e|---------------------------------|
                  B|---------------------------------|
                  G|-5-5-5-5-----------------8-8-7-7-| X2
                  D|-5-5-5-5-6-6-6-6-8-8-8-8-8-8-7-7-|
                  A|-3-3-3-3-6-6-6-6-8-8-8-8-6-6-5-5-|
                  E|---------4-4-4-4-6-6-6-6---------|

Verse: e|-------------------------------------------------|
       B|-------------------------------------------------|
       G|-5-5-x-5-5-x-------------------------8-8-x-8-8-x-|
       D|-5-5-x-5-5-x-5-5-x-5-5-x-6-6-x-6-6-x-8-8-x-8-8-x-|
       A|-3-3-x-3-3-x-5-5-x-5-5-x-6-6-x-6-6-x-6-6-x-6-6-x-|
       E|-------------3-3-x-3-3-x-4-4-x-4-4-x-------------|

          I love the way that this began. Started off right so innocent.

          I’m letting you know that I’m letting you go. I want your best friend.

Lead Verse: e|-----------------------------------------------------------------|
            B|-4---4---4---4-----------------------------------6---6---6---6---|
            G|---5---5---5---5-7-5-7-5-7-5-7-5-8-5-8-5-8-5-8-5---8---8---8---8-|
            D|-----------------------------------------------------------------|
            A|-----------------------------------------------------------------|
            E|-----------------------------------------------------------------|

Rhythm Verse: e|-------------------------------------------------|
              B|-------------------------------------------------|
              G|-5-5-x-5-5-x-------------------------8-8-x-8-8-x-|
              D|-5-5-x-5-5-x-5-5-x-5-5-x-6-6-x-6-6-x-8-8-x-8-8-x-|
              A|-3-3-x-3-3-x-5-5-x-5-5-x-6-6-x-6-6-x-6-6-x-6-6-x-|
              E|-------------3-3-x-3-3-x-4-4-x-4-4-x-------------|

                 I’m giving’ it up and asking why. You seem so shocked and so surprised.

                 I’m sorry it hurts, I’m surely a jerk. I understand why you’re mad.

Pre-Chorus: e|-----|
            B|-----|
            G|-----|
            D|-66~-|
            A|-66~-|
            E|-44~-|

               Don’t talk that crap when you call me back.

            e|-----------|
            B|-----------|
            G|-88~-------|
            D|-88~-88-88-|
            A|-66~-88-88-|
            E|-----66-66-|

               As a matter of fact, don’t act like that.

            e|-----|
            B|-----|
            G|-----|
            D|-66~-|
            A|-66~-|
            E|-44~-|

               Everybody knows you’re right.

            e|-----------|
            B|-----------|
            G|-88~-------|
            D|-88~-88-88-|
            A|-66~-88-88-|
            E|-----66-66-|

               Everybody knows I’m wrong (Wrong!)

Chorus: e|------------------------|
        B|------------------------|
        G|-5-5~-----------8-8-7-7-| X2
        D|-5-5~-6-6~-8-8~-8-8-7-7-|
        A|-3-3~-6-6~-8-8~-6-6-5-5-|
        E|------4-4~-6-6~---------|

           It’s 9 o’clock on the dot at the spot, and I’m hanging with her friends again.

           Great taste, beautiful place. You’re fashionably late (Hey!)

        e|---------------------------------|
        B|---------------------------------|
        G|-5-5-5-5-----------------8-8-7-7-| 
        D|-5-5-5-5-6-6-6-6-8-8-8-8-8-8-7-7-|
        A|-3-3-3-3-6-6-6-6-8-8-8-8-6-6-5-5-|
        E|---------4-4-4-4-6-6-6-6---------|

           And I don’t wanna be that guy that makes you sad or makes you cry again

        e|------------------------|
        B|------------------------|
        G|-5-5~-----------8-8-7-7-|
        D|-5-5~-6-6~-8-8~-8-8-7-7-|
        A|-3-3~-6-6~-8-8~-6-6-5-5-|
        E|------4-4~-6-6~---------|
           
           Without a doubt, sorry about making out with your friends (Mwah!)

Lead Pre-Verse: e|---------------------------------------|
                B|------------------------------8-6---6~-|
                G|-5h7h8-5h7h8-5h7h8p5~-5h7h8p5-----8----|
                D|---------------------------------------|
                A|---------------------------------------|
                E|---------------------------------------|
          
                e|-----------------------------------|
                B|----------------------6-6-6--------|
                G|-5h7h8-5h7h8-5h7h8p5~------8-8~-7~-|
                D|-----------------------------------|
                A|-----------------------------------|
                E|-----------------------------------|

Rhythm Pre-Verse: e|---------------------------------|
                  B|---------------------------------|
                  G|-5-5-5-5-----------------8-8-7-7-| X2
                  D|-5-5-5-5-6-6-6-6-8-8-8-8-8-8-7-7-|
                  A|-3-3-3-3-6-6-6-6-8-8-8-8-6-6-5-5-|
                  E|---------4-4-4-4-6-6-6-6---------|

Verse: e|-------------------------------------------------|
       B|-------------------------------------------------|
       G|-5-5-x-5-5-x-------------------------8-8-x-8-8-x-|
       D|-5-5-x-5-5-x-5-5-x-5-5-x-6-6-x-6-6-x-8-8-x-8-8-x-|
       A|-3-3-x-3-3-x-5-5-x-5-5-x-6-6-x-6-6-x-6-6-x-6-6-x-|
       E|-------------3-3-x-3-3-x-4-4-x-4-4-x-------------|

          It’s got nothing to do with how you look. Just another excuse to write a hook.

          I’m letting you know that she liked my post up on my Facebook.

Lead Verse: e|-----------------------------------------------------------------|
            B|-4---4---4---4-----------------------------------6---6---6---6---|
            G|---5---5---5---5-7-5-7-5-7-5-7-5-8-5-8-5-8-5-8-5---8---8---8---8-|
            D|-----------------------------------------------------------------|
            A|-----------------------------------------------------------------|
            E|-----------------------------------------------------------------|

Rhythm Verse: e|-------------------------------------------------|
              B|-------------------------------------------------|
              G|-5-5-x-5-5-x-------------------------8-8-x-8-8-x-|
              D|-5-5-x-5-5-x-5-5-x-5-5-x-6-6-x-6-6-x-8-8-x-8-8-x-|
              A|-3-3-x-3-3-x-5-5-x-5-5-x-6-6-x-6-6-x-6-6-x-6-6-x-|
              E|-------------3-3-x-3-3-x-4-4-x-4-4-x-------------|

                 And after all you’re not my type, but all your friends are pretty nice.

                 You know what I mean. Stop making a scene and take some words of advice.
Pre-Chorus: e|-----|
            B|-----|
            G|-----|
            D|-66~-|
            A|-66~-|
            E|-44~-|

               Don’t talk that crap when you call me back.

            e|-----------|
            B|-----------|
            G|-88~-------|
            D|-88~-88-88-|
            A|-66~-88-88-|
            E|-----66-66-|

               As a matter of fact, don’t act like that.

            e|-----|
            B|-----|
            G|-----|
            D|-66~-|
            A|-66~-|
            E|-44~-|

               Everybody knows you’re right.

            e|-----------|
            B|-----------|
            G|-88~-------|
            D|-88~-88-88-|
            A|-66~-88-88-|
            E|-----66-66-|

               Everybody knows I’m wrong (Right?)

Chorus: e|------------------------|
        B|------------------------|
        G|-5-5~-----------8-8-7-7-| X2
        D|-5-5~-6-6~-8-8~-8-8-7-7-|
        A|-3-3~-6-6~-8-8~-6-6-5-5-|
        E|------4-4~-6-6~---------|

           It’s 9 o’clock on the dot at the spot, and I’m hanging with her friends again.

           Great taste, beautiful place. You’re fashionably late

        e|---------------------------------|
        B|---------------------------------|
        G|-5-5-5-5-----------------8-8-7-7-| 
        D|-5-5-5-5-6-6-6-6-8-8-8-8-8-8-7-7-|
        A|-3-3-3-3-6-6-6-6-8-8-8-8-6-6-5-5-|
        E|---------4-4-4-4-6-6-6-6---------|

           And I don’t wanna be that guy that makes you sad or makes you cry again

        e|------------------------|
        B|------------------------|
        G|-5-5~-----------8-8-7-7-|
        D|-5-5~-6-6~-8-8~-8-8-7-7-|
        A|-3-3~-6-6~-8-8~-6-6-5-5-|
        E|------4-4~-6-6~---------|
           
           Without a doubt, sorry about making out with your friends

Bridge: e|---------------------------------|
        B|---------------------------------|
        G|-----------------8-8-8-8-----5-5-| X3
        D|-6-6-6-6-6-6-6-6-8-8-8-8-8-8-5-5-|
        A|-6-6-6-6-6-6-6-6-6-6-6-6-8-8-3-3-|
        E|-4-4-4-4-4-4-4-4---------6-6-----|

           And I’ve got the topic conversation now.

           And I know I’m running out of time (Yeah!)

           It’s on an honest demonstration now.

        e|-------------------------------------------------|
        B|-------------------------------------------------|
        G|---------------------------------6-6-6-6-8-8-8-8-|
        D|-6-6-6-6-6-6-6-6-8-8-8-8-9-9-9-9-6-6-6-6-8-8-8-8-|
        A|-6-6-6-6-6-6-6-6-8-8-8-8-9-9-9-9-4-4-4-4-6-6-6-6-|
        E|-4-4-4-4-4-4-4-4-6-6-6-6-7-7-7-7-----------------|

           You’re not the only one. Not the only one.

Pre-Chorus: e|-----|
            B|-----|
            G|-----|
            D|-66~-|
            A|-66~-|
            E|-44~-|

               Don’t talk that crap when you call me back.

            e|-----------|
            B|-----------|
            G|-88~-------|
            D|-88~-88-88-|
            A|-66~-88-88-|
            E|-----66-66-|

               As a matter of fact, don’t act like that.

            e|-----|
            B|-----|
            G|-----|
            D|-66~-|
            A|-66~-|
            E|-44~-|

               Everybody knows you’re right.

            e|-----|
            B|-----|
            G|-88~-|
            D|-88~-|
            A|-66~-|
            E|-----|

               Everybody sing along (Ahhh!)

            e|-----|
            B|-----|
            G|-----|
            D|-66~-|
            A|-66~-|
            E|-44~-|

               And I don’t wanna be that guy that makes you sad or makes you cry again.

               Without a doubt, sorry about fucking all your friends (What?)

Chorus: e|------------------------|
        B|------------------------|
        G|-5-5~-----------8-8-7-7-| X2
        D|-5-5~-6-6~-8-8~-8-8-7-7-|
        A|-3-3~-6-6~-8-8~-6-6-5-5-|
        E|------4-4~-6-6~---------|

           It’s 9 o’clock on the dot at the spot, and I’m hanging with her friends again.

           Great taste, beautiful place. You’re fashionably late

        e|---------------------------------|
        B|---------------------------------|
        G|-5-5-5-5-----------------8-8-7-7-| 
        D|-5-5-5-5-6-6-6-6-8-8-8-8-8-8-7-7-|
        A|-3-3-3-3-6-6-6-6-8-8-8-8-6-6-5-5-|
        E|---------4-4-4-4-6-6-6-6---------|

           And I don’t wanna be that guy that makes you sad or makes you cry again

        e|------------------------|
        B|------------------------|
        G|-5-5~-----------8-8-7-7-|
        D|-5-5~-6-6~-8-8~-8-8-7-7-|
        A|-3-3~-6-6~-8-8~-6-6-5-5-|
        E|------4-4~-6-6~---------|
           
           Without a doubt, sorry about making out with your friends


Lead Refrain: e|---------------------------------------|
              B|------------------------------8-6---6~-|
              G|-5h7h8-5h7h8-5h7h8p5~-5h7h8p5-----8----|
              D|---------------------------------------|
              A|---------------------------------------|
              E|---------------------------------------|
          
                e|-----------------------------------|
                B|----------------------6-6-6--------|
                G|-5h7h8-5h7h8-5h7h8p5~------8-8~-7~-| (Repeat whole lead refrain twice)
                D|-----------------------------------|
                A|-----------------------------------|
                E|-----------------------------------|

Rhythm Refrain: e|---------------------------------|
                B|---------------------------------|
                G|-5-5-5-5-----------------8-8-7-7-| X4
                D|-5-5-5-5-6-6-6-6-8-8-8-8-8-8-7-7-|
                A|-3-3-3-3-6-6-6-6-8-8-8-8-6-6-5-5-|
                E|---------4-4-4-4-6-6-6-6---------|

                     Making out with your friends

                     Making out with your friends

Outro: e|----------|
       B|----------|
       G|-8~----8~-|
       D|-8~-8~-8~-|
       A|-6~-8~-6~-|
       E|----6~----|

          Without a doubt. Sorry about having sex with all your friends (Hahaha!)

x = muted string
h = hammer on
p = pull off
~ = held/extended note
Suggest correction
Creating personal tab
Creating personal tab
You can edit any tab online and save it as your Personal.

You can edit, replace or remove any tab part or add personal notes – all changes will be seen only by you.

Personal tabs can be accessed anytime from any device, even offline.
Learn more »
comments
print report bad tab
1 comment total.
-1 reply
the_tabber_b 10 Jan 23, 2016 06:01 PM

didn't like this contribution

guest
You may want to rate the tab now too:
select rating
Wanna post a correction for this tab? Suggest correction