Oops, an error
Loading. Please wait.
We have an official Fashionably Late tab made by UG professional guitarists. Check out the tab »
×
127 views 3 this week
no commentswrite comment
1 2 3 4 5
3 more votes to show rating
add to favorites
×
Save as Personal and add changes to this tab that will be seen only by you. Learn more ›
×
You can save this tab as Personal to edit and correct it or add notes. All changes will be seen only by you. Learn more »
launch autoscroll
font size
0
reset
how to read this tab
guitar tuner
edit
Autoscroll
slow
fast
+/-
esc
set tempo
stop
FALLING IN REVERSE - FASHIONABLY LATE

Tuning: Drop C  C G C F A D

D---------------------------------------------------------|
A---------------------------------------------------------|
F---------------------------------------------------------|
C--77-----------------------------------------------------|
G--55-----------------------------------------------------|
C---------------------------------------------------------|
IT’S 9 0 CLOCK ON THE DOT AT THE SPA AND I’M HANGIN WITH HER
FRIENDS AGAIN, GREAT TASTE, BEAUTIFUL PLACE, AND YOUR FASHIONABLYLATE

D---------------------------------------------------------|
A---------------------------------------------------------|
F---------------------------------------------------------|
C--77-----------------------------------------------------|
G--55-----------------------------------------------------|
C---------------------------------------------------------|
AND I DONT WANNA BE THAT GUY, THAT MAKES YOU SAD MAKES 
YOU CRY AGAIN, WITHOUT A DOUBT, SORRY ABOUT

D---------------------------------------------------------|
A---------------------------------------------------------|
F---------------------------------------------------------|
C--55-----------------------------------------------------|
G--33-----------------------------12/---------------------|
C---------------------------------12/---------------------|
   MAKIN OUT WITH YOUR FRIENDS

D--------------------------------------------------------------|
A------------------------------------------10------------------|
F--7-9-10--7-9-10--7-9-10-7----7-9-10--7-9-----12-10-12--------|
C--------------------------------------------------------------|
G--------------------------------------------------------------|
C--------------------------------------------------------------|
NA NA NA  NA NA NA  NA NA NA NA  NA NA NA  NA NA  NA  NA NA NA 

d--------------------------------------------------------------|
a--------------------------------------------------------------|
F--7-9-10--7-9-10--7-9-10-7---12-12-12-10---10-----------------|
C--------------------------------------------------------------|
G--------------------------------------------------------------|
C--------------------------------------------------------------| 
NA NA NA  NA NA NA  NA NA NA NA  NA NA NA NA  NA

Verse2
D---------------------------------------------------------|
A---------------------------------------------------------|
F---------------------------------------------------------|
C-7-7-----------7-7--7---7-2--2-------------2-2--2--------|
G-5-5-----------5-5--5---5-0--0-------------0-0--0--------|
C---------------------------------------------------------|
I LOVE THE WAY THAT THIS BEGAN  STARTED OFF RIGHT SO INNOCENT

D----------------------------------------------------------------|
A----------------------------------------------------------------|
F----------------------------------------------------------------|
C-2-3--3-------------------------3--3-3------------3-3--3-----3--|
G-0-1--1-------------------------1--3-3------------3-3--3-----3--|
C-----------------------------------3-3------------3-3--3-----3--|
I’M LETTING YOU KNOW I’M LETTING YOU GO I WANT YOUR BEST FRIEND

D----------------------------------------------------------------|
A----------------------------------------------------------------|
F-10-10---------10--10-10------10---9--9-----------9-9--9-----9--|
C----------------------------------------------------------------|
G-8--8-----------8---8--8-------8---7--7-----------7-7--7-----7--|
C----------------------------------------------------------------|
  I’M GIVING IT UP             AND ASKING WHY YOU SEEM SO SUPRISED

D----------------------------------------------------------------|
A----------------------------------------------------------------|
F-10-10---------10--10-10---------10-----------------------------|
C-------------------------------------5-5--------5-5---5----5----|
G-8--8-----------8---8--8----------8--3-3--------3-3---3----3----|
C----------------------------------------------------------------|
         I’M SORRY IT HURTS, I’M SURELY A JERK, I UNDERSTAND WHY
                                                YOU’RE MAD          

D---------------------------------------------------------------------------------|
A--10----10----10----10-----10------10-----10-----10-----11----11----11----11-----|
F-----10----10----10----10------12-----12-----12-----12-----10----10----10----10--|
C---------------------------------------------------------------------------------|
G---------------------------------------------------------------------------------|
C---------------------------------------------------------------------------------|

D--------------------------------------------------------------|
A--------------------------------------------------------------|
F--------------------------------------------------------------|
C-33----------------------------------33-----------------------|
G-11----------------------------------33-----------------------|
C-------------------------------------33-----------------------|
DONT TALK THAT CRAP  WHEN YOU CALL ME BACK  

D--------------------------------------------------------------|
A--------------------------------------------------------------|
F--------------------------------------------------------------|
C---------------55-------55-------33---------------------------|
G---------------33-------33-------11---------------------------|
C--------------------------------------------------------------|
AS A MATTER OF FACT DONT ACT LIKE THAT

D--------------------------------------------------------------|
A--------------------------------------------------------------|
F--------------------------------------------------------------|
C-------------------------------------33-----------------------|
G-------------------------------------33-----------------------|
C-------------------------------------33-----------------------|
 EVERYBODY KNOWS YOUR RIGHT           EVERYBODY KNOWS 

D--------------------------------------------------------------|
A--------------------------------------------------------------|
F--------------------------------------------------------------|
C---55-55------------------------------------------------------|
G---33-33------------------------------------------------------|
C--------------------------------------------------------------|
I’M WRONG

D---------------------------------------------------------|
A---------------------------------------------------------|
F---------------------------------------------------------|
C-77--------------------7-55--------------------3-55------|
G-55--------------------5-33--------------------1-33------|
C---------------------------------------------------------|
IT’S NINE O CLOCK ON THE DOT AT THE SPA AND I’M HANGIN WITH HER

D---------------------------------------------------------|
A---------------------------------------------------------|
F---------------------------------------------------------|
C-5-33--22------------------------------------------------|
G-3-33--22------------------------------------------------|
C---33--22------------------------------------------------|
FRIENDS AGAIN

D---------------------------------------------------------|
A---------------------------------------------------------|
F---------------------------------------------------------|
C-77--------------------7-55--------------------3-55------|
G-55--------------------5-33--------------------1-33------|
C---------------------------------------------------------|
 GREAT TASTE        BEAUTIFUL PLACE    AND YOUR FASHIONABLY 

D---------------------------------------------------------|
A---------------------------------------------------------|
F---------------------------------------------------------|
C-5-33--22------------------------------------------------|
G-3-33--22------------------------------------------------|
C---33--22------------------------------------------------|
LATE 

D----------------------------------------------------------------------|
A----------------------------------------------------------------------|
F----------------------------------------------------------------------|
C---7-7-7-7----------3-3-3-3--5-5-5-5----------------3-3-------2-2-----|
G---5-5-5-5----------1-1-1-1--3-3-3-3----------------3-3-------2-2-----|
C----------------------------------------------------3-3-------2-2-----|
AND I DONT WANNA BE THAT GUY  THAT MAKE YOU SAD THAT MAKES YOU CRY AGAIN

D----------------------------------------------------------------------|
A----------------------------------------------------------------------|
F----------------------------------------------------------------------|
C-77------------33------------55---------------------------------------|
G-55------------11------------33---------------------------------------|
C----------------------------------------------------------------------|
WITHOUT A DOUBT, SORRY ABOUT, MAKING OUT WITH YOUR FRIENDS        MUAH

D--------------------------------------------------------------|
A------------------------------------------10------------------|
F--7-9-10--7-9-10--7-9-10-7----7-9-10--7-9-----12-10-12--------|
C--------------------------------------------------------------|
G--------------------------------------------------------------|
C--------------------------------------------------------------|
NA NA NA  NA NA NA  NA NA NA NA  NA NA NA  NA NA  NA  NA NA NA 

D--------------------------------------------------------------|
A--------------------------------------------------------------|
F--7-9-10--7-9-10--7-9-10-7---12-12-12-10---10-----------------|
C--------------------------------------------------------------|
G--------------------------------------------------------------|
C--------------------------------------------------------------|
NA NA NA  NA NA NA  NA NA NA NA  NA NA NA NA  NA

D----------------------------------------------------------------------------|
A----------------------------------------------------------------------------|
F----------------------------------------------------------------------------|
C-7-7-----------7-7--7------------7-2--2---------------2-2--2----------------|
G-5-5-----------5-5--5------------5-0--0---------------0-0--0----------------|
C----------------------------------------------------------------------------|
IT’S GOT NOTHING TO DO  WITH HOW YOU LOOK  JUST ANOTHER EXCUSE TO WRITE A HOOK

D----------------------------------------------------------------|
A----------------------------------------------------------------|
F----------------------------------------------------------------|
C-2-3--3-------------------------3--3-3------------3-3--3-----3--|
G-0-1--1-------------------------1--3-3------------3-3--3-----3--|
C-----------------------------------3-3------------3-3--3-----3--|
I’M LETTING YOU KNOW  SHE LIKED MY POST UP ON MY FACEBOOK

D------------------------------------------------------------------|
A------------------------------------------------------------------|
F-10-10---------10--10-10--------10---9--9-----------9-9--9-----9--|
C------------------------------------------------------------------|
G-8--8-----------8---8--8---------8---7--7-----------7-7--7-----7--|
C------------------------------------------------------------------|
AND AFTER ALL  YOUR NOT MY TYPE  BUT ALL YOUR FRIENDS ARE PRETTY NICE

D----------------------------------------------------------------|
A----------------------------------------------------------------|
F-10-10---------10--10-10---------10-----------------------------|
C-------------------------------------5-5--------5-5---5----5----|
G-8--8-----------8---8--8----------8--3-3--------3-3---3----3----|
C----------------------------------------------------------------|
YOU KNOW      WHAT I MEAN   STOP MAKING A SCENE  AND TAKE SOME WORDS OF ADVICE

D--------------------------------------------------------------|
A--------------------------------------------------------------|
F--------------------------------------------------------------|
C-33----------------------------------33-----------------------|
G-11----------------------------------33-----------------------|
C-------------------------------------33-----------------------|
DONT TALK THAT CRAP  WHEN YOU CALL ME BACK  

D--------------------------------------------------------------|
A--------------------------------------------------------------|
F--------------------------------------------------------------|
C---------------55-------55-------33---------------------------|
G---------------33-------33-------11---------------------------|
C--------------------------------------------------------------|
AS A MATTER OF FACT DONT ACT LIKE THAT

D--------------------------------------------------------------|
A--------------------------------------------------------------|
F--------------------------------------------------------------|
C-------------------------------------33-----------------------|
G-------------------------------------33-----------------------|
C-------------------------------------33-----------------------|
 EVERYBODY KNOWS YOUR RIGHT           EVERYBODY KNOWS 

D--------------------------------------------------------------|
A--------------------------------------------------------------|
F--------------------------------------------------------------|
C---55-55------------------------------------------------------|
G---33-33------------------------------------------------------|
C--------------------------------------------------------------|
I’M WRONG

D---------------------------------------------------------|
A---------------------------------------------------------|
F---------------------------------------------------------|
C-77--------------------7-55--------------------3-55------|
G-55--------------------5-33--------------------1-33------|
C---------------------------------------------------------|
IT’S NINE O CLOCK ON THE DOT AT THE SPA AND I’M HANGIN WITH HER

D---------------------------------------------------------|
A---------------------------------------------------------|
F---------------------------------------------------------|
C-5-33--22------------------------------------------------|
G-3-33--22------------------------------------------------|
C---33--22------------------------------------------------|
FRIENDS AGAIN

D---------------------------------------------------------|
A---------------------------------------------------------|
F---------------------------------------------------------|
C-77--------------------7-55--------------------3-55------|
G-55--------------------5-33--------------------1-33------|
C---------------------------------------------------------|
 GREAT TASTE   BEAUTIFUL PLACE         AND YOUR FASHIONABLY 

D---------------------------------------------------------|
A---------------------------------------------------------|
F---------------------------------------------------------|
C-5-33--22------------------------------------------------|
G-3-33--22------------------------------------------------|
C---33--22------------------------------------------------|
LATE 

D----------------------------------------------------------------------|
A----------------------------------------------------------------------|
F----------------------------------------------------------------------|
C---7-7-7-7----------3-3-3-3--5-5-5-5----------------3-3-------2-2-----|
G---5-5-5-5----------1-1-1-1--3-3-3-3----------------3-3-------2-2-----|
C----------------------------------------------------3-3-------2-2-----|
AND I DONT WANNA BE THAT GUY  THAT MAKE YOU SAD THAT MAKES YOU CRY AGAIN

D----------------------------------------------------------------------|
A----------------------------------------------------------------------|
F----------------------------------------------------------------------|
C-7-7-7-7---------3-3-3-3-----5-5-5-5--------------6-6-6-6-------------|
G-5-5-5-5---------1-1-1-1-----3-3-3-3--------------4-4-4-4-------------|
C----------------------------------------------------------------------|
WITHOUT A DOUBT, SORRY ABOUT, MAKING OUT WITH YOUR FRIENDS 

D---------------------------------------------------------|
A---------------------------------------------------------|
F---------------------------------------------------------|
C-3-3-3-3-3-3-3-3----3-3-3-3---5-5-5-5--------------------|
G-1-1-1-1-1-1-1-1----3-3-3-3---3-3-3-3--------------------|
C--------------------3-3-3-3------------------------------|
AND I’VE GOT THE     TOPIC     CONVERSATION NOW

D---------------------------------------------------------|
A---------------------------------------------------------|
F---------------------------------------------------------|
C-3-3-3-3-3-3-3-3---------3-3-3-3---5-7-------------------|
G-1-1-1-1-1-1-1-1---------3-3-3-3---3-5-------------------|
C-------------------------3-3-3-3-------------------------|
AND I KNOW I’M RUNNING    OUT OF    TIME

D---------------------------------------------------------|
A---------------------------------------------------------|
F---------------------------------------------------------|
C-3-3-3-3-3-3-3-3----3-3-3-3---5-5-5-5--------------------|
G-1-1-1-1-1-1-1-1----3-3-3-3---3-3-3-3--------------------|
C--------------------3-3-3-3------------------------------|
IT’S NOT AN          HONEST   DEMONSTRATION  NOW

D--------------------------------------------------------------------|
A--------------------------------------------------------------------|
F--------------------------5-5-5-5---7-7-7-7---5-5-5-5---9-9-9-9-----|
C-3-3-3-3-3-3-3-3--------------------------------------------------3-|
G-1-1-1-1-1-1-1-1----------3-3-3-3---5-5-5-5---3-3-3-3---7-7-7-7---1-|
C--------------------------------------------------------------------|
YOU’RE NOT THE ONLY ONE    NOT       THE       ONLY      ONE

D--------------------------------------------------------------|
A--------------------------------------------------------------|
F--------------------------------------------------------------|
C-33----------------------------------33-----------------------|
G-11----------------------------------33-----------------------|
C-------------------------------------33-----------------------|
DONT TALK THAT CRAP  WHEN YOU CALL ME BACK  

D--------------------------------------------------------------|
A--------------------------------------------------------------|
F--------------------------------------------------------------|
C---------------55-------55-------33---------------------------|
G---------------33-------33-------11---------------------------|
C--------------------------------------------------------------|
AS A MATTER OF FACT DONT ACT LIKE THAT

D--------------------------------------------------------------|
A--------------------------------------------------------------|
F--------------------------------------------------------------|
C-------------------------------------3------------------------|
G-------------------------------------3------------------------|
C-------------------------------------3------------------------|
 EVERYBODY KNOWS YOUR RIGHT           EVERYBODY SING ALONG

D----------------------------------------------------------------------|
A----------------------------------------------------------------------|
F----------------------------------------------------------------------|
C---7-7----------------------------------------------------------------|
G---5-5----------------------------------------------------------------|
C----------------------------------------------------------------------|
AND I DONT WANNA BE THAT GUY  THAT MAKE YOU SAD THAT MAKES YOU CRY AGAIN

D----------------------------------------------------------------------|
A----------------------------------------------------------------------|
F----------------------------------------------------------------------|
C-----------------------------5-5--------------------------------------|
G-----------------------------3-3--------------------------------------|
C----------------------------------------------------------------------|
WITHOUT A DOUBT, SORRY ABOUT, FUCKING ALL YOUR FRIENDS 

D---------------------------------------------------------|
A---------------------------------------------------------|
F---------------------------------------------------------|
C-77--------------------7-55--------------------3-55------|
G-55--------------------5-33--------------------1-33------|
C---------------------------------------------------------|
IT’S NINE O CLOCK ON THE DOT AT THE SPA AND I’M HANGIN WITH HER

D---------------------------------------------------------|
A---------------------------------------------------------|
F---------------------------------------------------------|
C-5-33--22------------------------------------------------|
G-3-33--22------------------------------------------------|
C---33--22------------------------------------------------|
FRIENDS AGAIN

D---------------------------------------------------------|
A---------------------------------------------------------|
F---------------------------------------------------------|
C-77---------------------7-55-------------------3-55------|
G-55---------------------5-33-------------------1-33------|
C---------------------------------------------------------|
 GREAT TASTE   BEAUTIFUL PLACE         AND YOUR FASHIONABLY 

D---------------------------------------------------------|
A---------------------------------------------------------|
F---------------------------------------------------------|
C-5-33--22------------------------------------------------|
G-3-33--22------------------------------------------------|
C---33--22------------------------------------------------|
LATE 

D----------------------------------------------------------------------|
A----------------------------------------------------------------------|
F----------------------------------------------------------------------|
C---7-7-7-7----------3-3-3-3--5-5-5-5----------------3-3-------2-2-----|
G---5-5-5-5----------1-1-1-1--3-3-3-3----------------3-3-------2-2-----|
C----------------------------------------------------3-3-------2-2-----|
AND I DONT WANNA BE THAT GUY  THAT MAKE YOU SAD THAT MAKES YOU CRY AGAIN

D----------------------------------------------------------------------|
A----------------------------------------------------------------------|
F----------------------------------------------------------------------|
C-7-7-7-7---------3-3-3-3-----5-5-5-5--------------6-6-6-6-------------|
G-5-5-5-5---------1-1-1-1-----3-3-3-3--------------4-4-4-4-------------|
C----------------------------------------------------------------------|
WITHOUT A DOUBT, SORRY ABOUT, MAKING OUT WITH YOUR FRIENDS

D--------------------------------------------------------------|
A------------------------------------------10------------------|
F--7-9-10--7-9-10--7-9-10-7----7-9-10--7-9-----12-10-12--------|
C--------------------------------------------------------------|
G--------------------------------------------------------------|
C--------------------------------------------------------------|
NA NA NA  NA NA NA  NA NA NA NA  NA NA NA  NA NA  NA  NA NA NA 

D--------------------------------------------------------------|
A--------------------------------------------------------------|
F--7-9-10--7-9-10--7-9-10-7---12-12-12-10---10-----------------|
C--------------------------------------------------------------|
G--------------------------------------------------------------|
C--------------------------------------------------------------|
NA NA NA  NA NA NA  NA NA NA NA  NA NA NA NA  NA  MAKING OUT WITH YOUR FRIENDS

D--------------------------------------------------------------|
A------------------------------------------10------------------|
F--7-9-10--7-9-10--7-9-10-7----7-9-10--7-9-----12-10-12--------|
C--------------------------------------------------------------|
G--------------------------------------------------------------|
C--------------------------------------------------------------|
NA NA NA  NA NA NA  NA NA NA NA  NA NA NA  NA NA  NA  NA NA NA 

D--------------------------------------------------------------|
A--------------------------------------------------------------|
F--7-9-10--7-9-10--7-9-10-7---12-12-12-10---10-----------------|
C--------------------------------------------------------------|
G-----------------------------------------------------2--------|
C-----------------------------------------------------2--------|
NA NA NA  NA NA NA  NA NA NA NA  NA NA NA NA  NA  MAKING OUT WITH YOUR FRIENDS

WITHOUT A DOUBT SORRY ABOUT HAVING SEX WITH ALL YOUR FRIENDS

            
            
Suggest correction
Creating personal tab
Creating personal tab
You can edit any tab online and save it as your Personal.

You can edit, replace or remove any tab part or add personal notes – all changes will be seen only by you.

Personal tabs can be accessed anytime from any device, even offline.
Learn more »
Give kudos to tab author, rate the tab!
1 2 3 4 5
comments
print report bad tab
guest
You may want to rate the tab now too:
select rating
Wanna post a correction for this tab? Suggest correction