Oops, an error
Loading. Please wait.

Fuck The Rest bass

1,553 views 3 this week
no commentswrite comment
1 2 3 4 5
1 last vote to show rating
add to favorites
×
Save as Personal and add changes to this tab that will be seen only by you. Learn more ›
×
You can save this tab as Personal to edit and correct it or add notes. All changes will be seen only by you. Learn more »
launch autoscroll
font size
0
reset
guitar tuner
edit
Autoscroll
slow
fast
+/-
esc
set tempo
stop
Intro 0:24
F|-------------------------------------------------------------------|
C|o-----------------------------------------------------------------o|
G|o-------------0---0-0-0-0-0-------2-2-2-2-2-2-6-7-2-4-2-4-7---7-\-o|
C|--2-2-2-2-2-2---2--------------------------------------------------|
    1 + 2 + 3 + 4 + 1 + 2 + 3 + 4 + 1 + 2 + 3 + 4 + 1 + 2 + 3 + 4 +

Verse 0:35
F|-----------------------------------------------------------------|
C|-----------------------------------------------------------------|
G|-------------0---0-0-0-0-0-------2-2-2-2-2-2-6-7-2-4-2-4-7-------|
C|-2-2-2-2-2-2---2-------------------------------------------------|
   1 + 2 + 3 + 4 + 1 + 2 + 3 + 4 + 1 + 2 + 3 + 4 + 1 + 2 + 3 + 4 +

F|-------------------------------------------------------------------|
C|o-----------------------------------------------------------------o|
G|o-------------0---0-0-0-0-0-------2-2-2-2-2-2-6-7-2-4-2-4-7---7-\-o|x3
C|--2-2-2-2-2-2---2--------------------------------------------------|
    1 + 2 + 3 + 4 + 1 + 2 + 3 + 4 + 1 + 2 + 3 + 4 + 1 + 2 + 3 + 4 +

Pre Chorus 0:58
F|-----------------------------------------------------------------|
C|-----------------------------------------------------------------|
G|-----------------0-0-0-0-0-0-0-0-7-7-7-7-7-7-7-7-2-2-2-2-2-2-2-2-|
C|-6-6-6-6-6-6-6-6-------------------------------------------------|
   1 + 2 + 3 + 4 + 1 + 2 + 3 + 4 + 1 + 2 + 3 + 4 + 1 + 2 + 3 + 4 +

F|-----------------------------------------------------------------|
C|-6-6-6-6-6-6-6-6-7-7-7-7-7-7-7-7---------------------------------|
G|---------------------------------7-7-7-7-7-7-7-7-2-2-2-2-2-2-2-2-|
C|-----------------------------------------------------------------|
   1 + 2 + 3 + 4 + 1 + 2 + 3 + 4 + 1 + 2 + 3 + 4 + 1 + 2 + 3 + 4 +

Chorus 1:10
F|-----------------------------------------------------------------|
C|-----------------------------------------------------------------|
G|-----------------2---2---------2-0---0---------0-0---0-----------|
C|-2---2---------2-----------------------------------------7-9-7-6-|
   1 + 2 + 3 + 4 + 1 + 2 + 3 + 4 + 1 + 2 + 3 + 4 + 1 + 2 + 3 + 4 +

F|-----------------------------------------------------------------|
C|-----------------------------------------------------------------|
G|-----------------2-2-2-2-2-2-2-2-0---0---------0-0---0-----------|
C|-2-2-2-2-2-2-2-2-----------------------------------------7-9-7-6-|
   1 + 2 + 3 + 4 + 1 + 2 + 3 + 4 + 1 + 2 + 3 + 4 + 1 + 2 + 3 + 4 +

F|-------------------------------------------------------------------|
C|o-----------------------------------------------------------------o|
G|o-----------------2---2---2---2---0---0---0---0---0---0-----------o|
C|--2---2---2---2-------------------------------------------7-9-7-6--|
    1 + 2 + 3 + 4 + 1 + 2 + 3 + 4 + 1 + 2 + 3 + 4 + 1 + 2 + 3 + 4 +

Interlude 1:32
F|-----------------------------------------------------------------|
C|-----------------------------------------------------------------|
G|-------------0---0-0-0-0-0-------2-2-2-2-2-2-6-7-2-4-2-4-7---7-7\|
C|-2-2-2-2-2-2---2-------------------------------------------------|
   1 + 2 + 3 + 4 + 1 + 2 + 3 + 4 + 1 + 2 + 3 + 4 + 1 + 2 + 3 + 4 +

Verse 1:38
F|-----------------------------------------------------------------|
C|---------------------------------------------------------2-1-----|
G|-----------------0-0-0-0-0-7-7---2-2-2-2-2-2-2-2-2-4-2-4-----4-2-|
C|-2-2-2-2-2-2-2-2-------------------------------------------------|
   1 + 2 + 3 + 4 + 1 + 2 + 3 + 4 + 1 + 2 + 3 + 4 + 1 + 2 + 3 + 4 +

F|-----------------------------------------------------------------|
C|---------------------------------------------------------2-1-----|
G|-----------------0-0-0-0-0-7-7---2-2-2-2-2-4-2-4-2-2-2-2-----4-2-|
C|-2-2-2-2-2-2-2-2-------------------------------------------------|
   1 + 2 + 3 + 4 + 1 + 2 + 3 + 4 + 1 + 2 + 3 + 4 + 1 + 2 + 3 + 4 +

F|-------------------------------------------------------------------|
C|o-----------------------------------------------------------------o|
G|o-------------0---0-0-0-0-0-------2-2-2-2-2-2-6-7-2-4-2-4-7---7-7\o|
C|--2-2-2-2-2-2---2--------------------------------------------------|
    1 + 2 + 3 + 4 + 1 + 2 + 3 + 4 + 1 + 2 + 3 + 4 + 1 + 2 + 3 + 4 +

Pre Chorus 2:01
F|-----------------------------------------------------------------|
C|-----------------------------------------------------------------|
G|-----------------0-0-0-0-0-0-0-0-7-7-7-7-7-7-7-7-2-2-2-2-2-2-2-2-|
C|-6-6-6-6-6-6-6-6-------------------------------------------------|
   1 + 2 + 3 + 4 + 1 + 2 + 3 + 4 + 1 + 2 + 3 + 4 + 1 + 2 + 3 + 4 +

F|-----------------------------------------------------------------|
C|-6-6-6-6-6-6-6-6-7-7-7-7-7-7-7-7---------------------------------|
G|---------------------------------7-7-7-7-7-7-7-7-----------------|
C|-------------------------------------------------9-9-9-9-9-\-----|
   1 + 2 + 3 + 4 + 1 + 2 + 3 + 4 + 1 + 2 + 3 + 4 + 1 + 2 + 3 + 4 +

Chorus 2:13
F|-----------------------------------------------------------------|
C|-----------------------------------------------------------------|
G|-----------------2---2---------2-0---0---------0-0---0-----------|
C|-2---2---------2-----------------------------------------7-9-7-6-|
   1 + 2 + 3 + 4 + 1 + 2 + 3 + 4 + 1 + 2 + 3 + 4 + 1 + 2 + 3 + 4 +

F|-----------------------------------------------------------------|
C|-----------------------------------------------------------------|
G|-----------------2-2-2-2-2-2-2-2-0---0---------0-0---0-----------|
C|-2-2-2-2-2-2-2-2-----------------------------------------7-9-7-6-|
   1 + 2 + 3 + 4 + 1 + 2 + 3 + 4 + 1 + 2 + 3 + 4 + 1 + 2 + 3 + 4 +

F|-------------------------------------------------------------------|
C|o-----------------------------------------------------------------o|
G|o-----------------2---2---2---2---0---0---0---0---0---0-----------o|
C|--2---2---2---2-------------------------------------------7-9-7-6--|
    1 + 2 + 3 + 4 + 1 + 2 + 3 + 4 + 1 + 2 + 3 + 4 + 1 + 2 + 3 + 4 +

Bridge 2:35
F|-----------------------------------------------------------------|
C|-----------------------------------------------------------------|
G|-----------------2---------------0-------------------------------|
C|-2---------------------------------------------------------------|
   1 + 2 + 3 + 4 + 1 + 2 + 3 + 4 + 1 + 2 + 3 + 4 + 1 + 2 + 3 + 4 +

F|-----------------------------------------------------------------|
C|-----------------------------------------------------------------|
G|-----------------2-2-2-2-2-2-2-2-0-0-0-0-0-0-0-0-0-0-0-0-0-2-0-2-|
C|-2-2-2-2-2-2-2-2-------------------------------------------------|
   1 + 2 + 3 + 4 + 1 + 2 + 3 + 4 + 1 + 2 + 3 + 4 + 1 + 2 + 3 + 4 +

F|-----------------------------------------------------------------|
C|-------------------------------------------------------------1-2-|
G|-----------------2-2-2-2-2-2-2-2-0-0-0-0-0-0-0-0-0-0-0-0-2-4-----|
C|-2-2-2-2-2-2-2-2-------------------------------------------------|
   1 + 2 + 3 + 4 + 1 + 2 + 3 + 4 + 1 + 2 + 3 + 4 + 1 + 2 + 3 + 4 +

F|-------------------------------------------------------------------|
C|o-----------------------------------------------------------------o|
G|o-----------------2-2-2-2-2-2-2-2-0-0-0-0-0-0-0-0-0-0-0-0-0-2-0-2-o|
C|--2-2-2-2-2-2-2-2--------------------------------------------------|
    1 + 2 + 3 + 4 + 1 + 2 + 3 + 4 + 1 + 2 + 3 + 4 + 1 + 2 + 3 + 4 +

F|-----------------------------------------------------------------|
C|-----------------------------------------------------------------|
G|-----------------2-2-2-2-2-2-2-2-0-0-0-0-0-0-0-0-0---------------|
C|-2-2-2-2-2-2-2-2-------------------------------------------------|
   1 + 2 + 3 + 4 + 1 + 2 + 3 + 4 + 1 + 2 + 3 + 4 + 1 + 2 + 3 + 4 +

Breakdown 3:10
F|-------------------------------------------------------------------|
C|o-----------------------------------------------------------------o|
G|o-----------------------------------------------------------------o|
C|--222-222-222-222-222-----------------------------222-222----------|
    1 + 2 + 3 + 4 + 1 + 2 + 3 + 4 + 1 + 2 + 3 + 4 + 1 + 2 + 3 + 4 +

F|-----------------------------------------------------------------|
C|-----------------------------------------------------------------|
G|-----------------------------------------------------------------|
C|-22222222222222222-------------------------------22222222--------|
   1 + 2 + 3 + 4 + 1 + 2 + 3 + 4 + 1 + 2 + 3 + 4 + 1 + 2 + 3 + 4 +

F|-----------------------------------------------------------------|
C|-----------------------------------------------------------------|
G|-----------------------------------------------------------------|
C|-22222222222222222-------------------------------2222------------|
   1 + 2 + 3 + 4 + 1 + 2 + 3 + 4 + 1 + 2 + 3 + 4 + 1 + 2 + 3 + 4 +

Rest

Chorus 3:45
F|-------------------------------------------------------------------|
C|o-----------------------------------------------------------------o|
G|o-----------------2---2---2---2---0---0---0---0---0---0-----------o|
C|--2---2---2---2-------------------------------------------7-9-7-6--|
    1 + 2 + 3 + 4 + 1 + 2 + 3 + 4 + 1 + 2 + 3 + 4 + 1 + 2 + 3 + 4 +

Outro3:56
F|-----------------------------------------------------------------|
C|-----------------------------------------------------------------|
G|-------------0---0-0-0-0-0-0-4-0-2-2-2-2-2-2-6-7-2-4-2-4-7-------|
C|-2-2-2-2-2-2---2-------------------------------------------------|
   1 + 2 + 3 + 4 + 1 + 2 + 3 + 4 + 1 + 2 + 3 + 4 + 1 + 2 + 3 + 4 +


F|-----------------------------------------------------------------|
C|-----------------------------------------------------------------|
G|-------------0---0-0-0-0-0-0-7-\-2-2-2-2-2-2-6-7-2-4-2-4-7-7-7---|
C|-2-2-2-2-2-2---2-------------------------------------------------|
   1 + 2 + 3 + 4 + 1 + 2 + 3 + 4 + 1 + 2 + 3 + 4 + 1 + 2 + 3 + 4 +
Tabbed by Dave Vucko

            
            
Suggest correction
Creating personal tab
Creating personal tab
You can edit any tab online and save it as your Personal.

You can edit, replace or remove any tab part or add personal notes – all changes will be seen only by you.

Personal tabs can be accessed anytime from any device, even offline.
Learn more »
Give kudos to tab author, rate the tab!
1 2 3 4 5
comments
print report bad tab
guest
You may want to rate the tab now too:
select rating
Wanna post a correction for this tab? Suggest correction