Oops, an error
Loading. Please wait.

Game Over bass

version 2
version 2

Whole song

1,129 views 3 this week
no commentswrite comment
1 2 3 4 5
x 3
add to favorites
×
Save as Personal and add changes to this tab that will be seen only by you. Learn more ›
×
You can save this tab as Personal to edit and correct it or add notes. All changes will be seen only by you. Learn more »
launch autoscroll
font size
0
reset
guitar tuner
edit
Autoscroll
slow
fast
+/-
esc
set tempo
stop
Verse 0:22
F|-----------------------------------------------------------------|
C|-----------------------------------------------------------------|
G|-----------------------------------------------------------------|
C|-5---5-----------5---5-----------2---2-----------2---2-----------|
   1 + 2 + 3 + 4 + 1 + 2 + 3 + 4 + 1 + 2 + 3 + 4 + 1 + 2 + 3 + 4 +

F|-----------------------------------------------------------------|
C|---------------------------------------------------------5---5-7-|
G|-3---3-----------5---5-------------------------------5-7---7-----|
C|---------------------------------5---5---------------------------|
   1 + 2 + 3 + 4 + 1 + 2 + 3 + 4 + 1 + 2 + 3 + 4 + 1 + 2 + 3 + 4 +

F|-----------------------------------------------------------------|
C|-----------------------------------------------------------------|
G|-----------------------------------------------------------------|
C|-5---5-----------5---5-----------2---2-----------2---2-----------|
   1 + 2 + 3 + 4 + 1 + 2 + 3 + 4 + 1 + 2 + 3 + 4 + 1 + 2 + 3 + 4 +

F|-----------------------------------------------------------------|
C|-----------------------------------------------------------------|
G|-3---3-----------5---5-------------------------------------------|
C|---------------------------------5---5---------------------------|
   1 + 2 + 3 + 4 + 1 + 2 + 3 + 4 + 1 + 2 + 3 + 4 + 1 + 2 + 3 + 4 +

Pre Chorus 0:40
F|-----------------------------------------------------------------|
C|-----------------------------------------------------------------|
G|-3---3---3---3---3---3---3---3---5---5---5---5---5---\-----------|
C|-----------------------------------------------------------------|
   1 + 2 + 3 + 4 + 1 + 2 + 3 + 4 + 1 + 2 + 3 + 4 + 1 + 2 + 3 + 4 +

Chorus 0:45
F|-----------------------------------------------------------------|
C|-----------------------------------------------------------------|
G|---------------------------------------------------------0-2-----|
C|-5---5-----------5---5---2-0-----2---2-----------2---2-----------|
   1 + 2 + 3 + 4 + 1 + 2 + 3 + 4 + 1 + 2 + 3 + 4 + 1 + 2 + 3 + 4 +

F|-----------------------------------------------------------------|
C|-----------------------------------------------------------------|
G|-3---3-----------3---3---5-7-----5---5-----------5---3---2---0---|
C|-----------------------------------------------------------------|
   1 + 2 + 3 + 4 + 1 + 2 + 3 + 4 + 1 + 2 + 3 + 4 + 1 + 2 + 3 + 4 +

F|-----------------------------------------------------------------|
C|-----------------------------------------------------------------|
G|---------------------------------------------------------0-2-----|
C|-5---5-----------5---5---2-0-----2---2-----------2---2-----------|
   1 + 2 + 3 + 4 + 1 + 2 + 3 + 4 + 1 + 2 + 3 + 4 + 1 + 2 + 3 + 4 +

F|-----------------------------------------------------------------|
C|-----------------------------------------------------------------|
G|-3---3---3---3---3---3---3---3---5---5---5---5---5---\-----------|
C|-----------------------------------------------------------------|
   1 + 2 + 3 + 4 + 1 + 2 + 3 + 4 + 1 + 2 + 3 + 4 + 1 + 2 + 3 + 4 +

Rest

Verse 1:12
F|-----------------------------------------------------------------|
C|-5---5-----------5---5-------------------------------------------|
G|---------------------------------7---7-----------7---7-----------|
C|-----------------------------------------------------------------|
   1 + 2 + 3 + 4 + 1 + 2 + 3 + 4 + 1 + 2 + 3 + 4 + 1 + 2 + 3 + 4 +

F|-----------------------------------------------------------------|
C|---------------------------------5---5-------------------5---5-7-|
G|-3---3-----------5---5-------------------------------5-7---7-----|
C|-----------------------------------------------------------------|
   1 + 2 + 3 + 4 + 1 + 2 + 3 + 4 + 1 + 2 + 3 + 4 + 1 + 2 + 3 + 4 +

F|-----------------------------------------------------------------|
C|-5---5-----------5---5-------------------------------------------|
G|---------------------------------7---7-----------7---7-----------|
C|-----------------------------------------------------------------|
   1 + 2 + 3 + 4 + 1 + 2 + 3 + 4 + 1 + 2 + 3 + 4 + 1 + 2 + 3 + 4 +

F|-----------------------------------------------------------------|
C|---------------------------------5---5---------------------------|
G|-3---3-----------5---5-------------------------------------------|
C|-----------------------------------------------------------------|
   1 + 2 + 3 + 4 + 1 + 2 + 3 + 4 + 1 + 2 + 3 + 4 + 1 + 2 + 3 + 4 +

Pre Chorus 1:29
F|-----------------------------------------------------------------|
C|-----------------------------------------------------------------|
G|-3---3---3---3---3---3---3---3---5---5---5---5---5---\-----------|
C|-----------------------------------------------------------------|
   1 + 2 + 3 + 4 + 1 + 2 + 3 + 4 + 1 + 2 + 3 + 4 + 1 + 2 + 3 + 4 +

Chorus 1:34
F|-----------------------------------------------------------------|
C|-----------------------------------------------------------------|
G|---------------------------------------------------------0-2-----|
C|-5---5-----------5---5---2-0-----2---2-----------2---2-----------|
   1 + 2 + 3 + 4 + 1 + 2 + 3 + 4 + 1 + 2 + 3 + 4 + 1 + 2 + 3 + 4 +

F|-----------------------------------------------------------------|
C|-----------------------------------------------------------------|
G|-3---3-----------3---3---5-7-----5---5-----------5---3---2---0---|
C|-----------------------------------------------------------------|
   1 + 2 + 3 + 4 + 1 + 2 + 3 + 4 + 1 + 2 + 3 + 4 + 1 + 2 + 3 + 4 +

F|-----------------------------------------------------------------|
C|-----------------------------------------------------------------|
G|---------------------------------------------------------0-2-----|
C|-5---5-----------5---5---2-0-----2---2-----------2---2-----------|
   1 + 2 + 3 + 4 + 1 + 2 + 3 + 4 + 1 + 2 + 3 + 4 + 1 + 2 + 3 + 4 +

F|-----------------------------------------------------------------|
C|-----------------------------------------------------------------|
G|-3---3---3---3---3---3---3---3---5---5---5---5---5---5---/---\---|
C|-----------------------------------------------------------------|
   1 + 2 + 3 + 4 + 1 + 2 + 3 + 4 + 1 + 2 + 3 + 4 + 1 + 2 + 3 + 4 +

Bridge 1:52
F|-----------------------------------------------------------------|
C|-----------------------------------------------------------------|
G|-3-3-3-3-3---------------3-3---3-5-5-5-5-5---------------5-5-----|
C|---------------------------------------------------------------7-|
   1 + 2 + 3 + 4 + 1 + 2 + 3 + 4 + 1 + 2 + 3 + 4 + 1 + 2 + 3 + 4 +

F|-----------------------------------------------------------------|
C|-----------------------------------------------------------------|
G|-----------------------------------------------------------------|
C|-5-5-5-5-5---------------5-5-----2-2-2-2-2-------2-2-2-2-2---2---|
   1 + 2 + 3 + 4 + 1 + 2 + 3 + 4 + 1 + 2 + 3 + 4 + 1 + 2 + 3 + 4 +

F|-----------------------------------------------------------------|
C|-----------------------------------------------------------------|
G|-3---3---3---3---3---3---3---3---5---5---5---5---5---5---5---5---|
C|-----------------------------------------------------------------|
   1 + 2 + 3 + 4 + 1 + 2 + 3 + 4 + 1 + 2 + 3 + 4 + 1 + 2 + 3 + 4 +

F|-----------------------------------------------------------------|
C|-----------------------------------------------------------------|
G|-----------------------------------------------------------------|
C|-5---5---5---5---5---5---5---5---2---2---2---2---2---2---2---2---|
   1 + 2 + 3 + 4 + 1 + 2 + 3 + 4 + 1 + 2 + 3 + 4 + 1 + 2 + 3 + 4 +

F|-----------------------------------------------------------------|
C|-----------------------------------------------------------------|
G|-3---3---3---3---3---3---3---3-/-17--17--17--17--17--\-----------|
C|-----------------------------------------------------------------|
   1 + 2 + 3 + 4 + 1 + 2 + 3 + 4 + 1 + 2 + 3 + 4 + 1 + 2 + 3 + 4 +

Rest

Chorus 2:26
F|-----------------------------------------------------------------|
C|-----------------------------------------------------------------|
G|---------------------------------------------------------0-2-----|
C|-5---5-----------5---5---2-0-----2---2-----------2---2-----------|
   1 + 2 + 3 + 4 + 1 + 2 + 3 + 4 + 1 + 2 + 3 + 4 + 1 + 2 + 3 + 4 +

F|-----------------------------------------------------------------|
C|-----------------------------------------------------------------|
G|-3---3-----------3---3---5-7-----5---5-----------5---3---2---0---|
C|-----------------------------------------------------------------|
   1 + 2 + 3 + 4 + 1 + 2 + 3 + 4 + 1 + 2 + 3 + 4 + 1 + 2 + 3 + 4 +

F|-----------------------------------------------------------------|
C|-----------------------------------------------------------------|
G|---------------------------------------------------------0-2-----|
C|-5---5-----------5---5---2-0-----2---2-----------2---2-----------|
   1 + 2 + 3 + 4 + 1 + 2 + 3 + 4 + 1 + 2 + 3 + 4 + 1 + 2 + 3 + 4 +

F|-----------------------------------------------------------------|
C|---------------------------------------------------------5---5-7-|
G|-3---3---3---3---3---3---3---3---5---5---5---5---5---5-----7-----|
C|-----------------------------------------------------------------|
   1 + 2 + 3 + 4 + 1 + 2 + 3 + 4 + 1 + 2 + 3 + 4 + 1 + 2 + 3 + 4 +

Outro Chorus 2:45
F|-----------------------------------------------------------------|
C|-----------------------------------------------------------------|
G|-----------------------------------------------------------------|
C|-5---5---5---5---5---5---5---5---2---2---2---2---2---2---2---2---|
   1 + 2 + 3 + 4 + 1 + 2 + 3 + 4 + 1 + 2 + 3 + 4 + 1 + 2 + 3 + 4 +

F|-----------------------------------------------------------------|
C|---------------------------------------------------------5---5-7-|
G|-3---3---3---3---3---3---3---3---5---5---5---5---5---5-7---7-----|
C|-----------------------------------------------------------------|
   1 + 2 + 3 + 4 + 1 + 2 + 3 + 4 + 1 + 2 + 3 + 4 + 1 + 2 + 3 + 4 +

F|-----------------------------------------------------------------|
C|-----------------------------------------------------------------|
G|-----------------------------------------------------------------|
C|-5---5---5---5---5---5---5---5---2---2---2---2---2---2---2---2---|
   1 + 2 + 3 + 4 + 1 + 2 + 3 + 4 + 1 + 2 + 3 + 4 + 1 + 2 + 3 + 4 +

F|-----------------------------------------------------------------|
C|-----------------------------------------------------------------|
G|-3---3---3---3---3---3---3---3---5---5---5---5---5---\-----------|
C|-----------------------------------------------------------------|
   1 + 2 + 3 + 4 + 1 + 2 + 3 + 4 + 1 + 2 + 3 + 4 + 1 + 2 + 3 + 4 +

Tabbed by Dave Vucko

            
            
Suggest correction
Creating personal tab
Creating personal tab
You can edit any tab online and save it as your Personal.

You can edit, replace or remove any tab part or add personal notes – all changes will be seen only by you.

Personal tabs can be accessed anytime from any device, even offline.
Learn more »
Give kudos to tab author, rate the tab!
1 2 3 4 5
comments
print report bad tab
guest
You may want to rate the tab now too:
select rating
Wanna post a correction for this tab? Suggest correction