Oops, an error
Loading. Please wait.

Goodbye Graceful tab

version 1
version 1

Whole song

Interactive

13,742 views 6 this week
3 commentsread comments
1 2 3 4 5
x 6
add to favorites
×
Save as Personal and add changes to this tab that will be seen only by you. Learn more ›
×
You can save this tab as Personal to edit and correct it or add notes. All changes will be seen only by you. Learn more »
launch autoscroll
font size
0
reset
how to read this tab
guitar tuner
edit
Autoscroll
slow
fast
+/-
esc
set tempo
stop
If there are a couple of mistakes im sorry this was my first tab and i only got the lead part
Verse:               1st Ending         2nd Ending
D|---x3------------|-----------------|---------------------------------------|
A|-----------------|-----------------|---------------------------------------|
F|-----------------|-----------------|---------------------------------------|
C|-----------------|----7p5----------|-----7p5h8p5---------------------------|
G|-----------------|5h8--------------|5h8------------------------------------|
C|-0-0-0-0-0-0-0-0-|-----------------|---------------------------------------|
   . . . . . .
           Repeat Verse 4 times


Chorus Chord Progression(Figure out how many times u play the chord and the rhythm:p):



                                          1st Ending      2nd Ending

D|---|---|--|-|-|----------------------|-------------|-----------------------|
A|---|---|--|-|-|----------------------|-------------|-----------------------|
F|---|---|--|-|-|----------------------|-------------|-----repeat2nd4x-------|
C|7--|8--|10|0|3|-Repeat chordtwice----|-------------|-----------------------|
G|7--|8--|10|0|3|----------------------|-------------|-----------------------|
C|7--|8--|10|0|3|----------------------|0-0-0-0-1b-0-|0-0-0-0-1b-0-----------|
                                        . . . .       . . . .

Breakdown1

D|--|-Figure Rhythm out------------------------------------------------------|
A|--|------------------------------------------------------------------------|
F|--|-----Repeat it 6x-------------------------------------------------------|
C|--|------------------------------------------------------------------------|
G|0-|------------------------------------------------------------------------|
C|0-|------------------------------------------------------------------------|
  .

            2nd part of breakdown
D|---------------------------------------------------------------------------|
A|---------------------------------im not------------------------------------|
F|---------------------------------sure--about-this part---------------------|
C|8p7-7p5-5p3-7p5-8p7-----------someone--help me please----------------------|
G|---------------------------------------------------------------------------|
C|---0---0---0---0-----------------------------------------------------------|
     .   .   .   .
     Before Chorus
D|---------------------------------------------------------------------------|
A|---------------------------------------------------------------------------|
F|---------------------------------------------------------------------------|
C|---------------------------------------------------------------------------|
G|---10h12---12h13-----13h15-----15h17---17h19----19h21----------------------|
C|0-0-----0-0------0-0-------0-0-------0--------0----------------------------|
  . .     . .      . .       . .       .        .

                  Repeat Chorus


  Repeat2x               Bridge chord progression(Figure out the timing)
D|--|---|---|--|-------------------------------------------------------------|
A|--|---|---|--|-------------------------------------------------------------|
F|--|5--|---|--|5----7------8-----7------------------------------------------|
C|5-|5--|7--|8-|5----7------8-----7------------------------------------------|
G|5-|3--|7--|8-|3----5------6-----5------------------------------------------|
C|5-|---|5--|6-|-------------------------------------------------------------|



                 Then at 2:17
D|---------------------------------------------------------------------------|
A|---------------------------------------------------------------------------|
F|---------------------------------------------------------------------------|
C|0--------------------0-------------------8--9--10-9------------------------|
G|0--------------------0-------------------5--6--7--6------------------------|
C|0--------------------0-----------------------------------------------------|

                                                      YEAHHHHHHHHH!!!!!!
D|---------------------------------------------------------------------------|
A|---------------------------------------------------------------------------|
F|---------------------------------------------------------------------------|
C|---------------------------------------------------------------------------|
G|---------------------------------------------------------------------------|
C|0-0-0-0-0-12b-12b-0-12b-12b-0-12b-12b-0-0-5h8-0-0-5h8----------------------|
  . . . . .         .         .         . .     . .


D|---------------------------------------------------------------------------|
A|---------------------------------------------------------------------------|
F|---------------------------------------------------------------------------|
C|-----------------------------------------------------------8-9-10-9--------|
G|--------------------------------------------10-------11----5-6-7--6--------|
C|0-0-0-0-0-12b-12b-0-12b-12b-0-12b-12b-0-0-0----0-0-0-----------------------|
  . . . . .         .         .         . . .    . . .
            Goodbye Graceful I'm so grateful...
D|---------------------------------------------------------------------------|
A|---------------------------------------------------------------------------|
F|---------------------------------------------------------------------------|
C|---------------------------------------------------------------------------|
G|8-7-7-5-6-5-5-3-4-3-3-2-2-1-0----------------------------------------------|
C|8-7-7-5-6-5-5-3-4-3-3-2-2-1-0----------------------------------------------|
  . . . . . . . . . . . . . . .


              Solo:(I only know the sweeps)if someone could tab the solo legato that 
would be great
         x4                              x3
D|------------13h17t22p17p13---------|-----------12h15t20p15p12--------------|
A|---------15---------------15-------|--------13----------------13-----------|
F|------14--------------------14-----|-----12---------------------12---------|
C|---15--------------------------15--|--14--------------------------14-------|
G|17-------------------------------17|15-------------------------------15----|
C|-----------------------------------|---------------------------------------|


             After 3rd time on second sweep do this...


D|12h15p12h15p12-------------------------------------------------------------|
A|--------------13-----------------------------------------------------------|
F|----------------12---------------------------------------------------------|
C|------------------14-------------------------------------------------------|
G|--------------------15-----------------------------------------------------|
C|---------------------------------------------------------------------------|

       x3                         x3
D|-----13h17t22p17p13------|------12h15t20p15p12-----------------------------|
A|--15---------------15----|---13---------------13---------------------------|
F|14-------------------14--|12--------------------12-------------------------|
C|-------------------------|-------------------------------------------------|
G|-------------------------|-------------------------------------------------|
C|-------------------------|-------------------------------------------------|


D|--------12h15t20p15p12---------|---------13h17t22p17p13-------13h17--------|
A|------13--------------13-------|------15----------------15--15-------------|
F|----12------------------12-----|----14--------------------14---------------|
C|--14----------------------14---|--15---------------------------------------|
G|15--------------------------15-|17-----------------------------------------|
C|-------------------------------|-------------------------------------------|


             Repeat Chorus
             Repeat Breakdownx7(i think)
             During 2nd part of the breakdown repeat the solo 5 string sweeps as much as possible


       Tab Legend

    h= hammer on
    p= pull off
    t= tap
    .= palm mute
    b= bend

            
            
Suggest correction
Creating personal tab
Creating personal tab
You can edit any tab online and save it as your Personal.

You can edit, replace or remove any tab part or add personal notes – all changes will be seen only by you.

Personal tabs can be accessed anytime from any device, even offline.
Learn more »
comments
print report bad tab
3 comments total.
0 reply
a7x4lifeXxX 308 Jun 11, 2013 06:11 PM

I think at 2:17, it should be more like this:

d|--------------------------------------------------------------
a|--------------------------------------------------------------
f|--------------------------------------------------------------
c|--------------------------------------------------------------
g|--------------------------------------------------------------
C|-0---0-13p12h13--0---0-13p12h13--0---0-13p12h13--0-5h6-0-5h6--
. . .

---------------------------------------------------------------
---------------------------------------------------------------
---------------------------------------------------------------
-------------------------------------------------5-----6-------
---------------------------------------------------------------
-0---0-13p12h13--0---0-13p12h13--0---0-13p12h13----5-5---5-5---
. . . . . . .

-------------------------------------------------------------
-------------------------------------------------------------
-------------------------------------------------------------
--------------------------------------------------------------
--------------------------------------------------------------
-0---0-13p12h13--0---0-13p12h13--0---0-13p12h13--0-5h6-0-5h6--
. . .

----------------------------------------------
----------------------------------------------
----------------------------------------------
----------------------------------------------
---------------------------------5--8--11--8--
-0---0-13p12h13--0---0-13p12h13--6--9--12--9--

0 reply
Synyster_97 10 Aug 03, 2013 05:19 AM

The part of the solo before the sweeps is all economy picked not legato, the first run goes like

D|-------------------------------------------------------------------------------------
A|-------------------------------------------------------------------------------------
F|----------14-16-17-16-14----------------------------------------------------14-16-17-
C|-14-16-17----------------17-16-14----------17-16-14----------------14-16-17----------
G|----------------------------------17-16-14----------17-16-14-16-17-------------------
C|-------------------------------------------------------------------------------------

-------------------------------------------------------------------17-19-20----------19-20-22----------20-22-23-20-|
----------------------------17-19-20-19-17----------------17-19-20----------19-20-22----------20-22-23-------------|
----------16-17-19-16-17-19----------------19-17-16-17-19----------------------------------------------------------|
-16-17-19----------------------------------------------------------------------------------------------------------|
-------------------------------------------------------------------------------------------------------------------|
-------------------------------------------------------------------------------------------------------------------|

Bend the last note and do some vibrato, sorry that's the only part I know

0 reply
Synyster_97 10 Aug 03, 2013 05:47 AM

The last note on the tab I posted should have been on the 22nd fret not the 20th

guest
Wanna post a correction for this tab? Suggest correction