Oops, an error
Loading. Please wait.

I Am Not A Vampire Tab

34,110 views 33 this week
1 commentread comment
1 2 3 4 5
x 5
add to favorites
launch autoscroll
font size
0
reset
how to read this tab
guitar tuner
Autoscroll
slow
fast
+/-
esc
set tempo
stop
Help us to improve Ultimate-Guitar.com Take our survey!
×
Author
Difficulty
Tuning
intermediate
C G C F A D
Drop C tuning.    
(Watch cover and follow) http://www.youtube.com/watch?v=p8EL7OTaIwQ

D|-----------------|----------------|------------------------------|
A|-----------------|----------------|12--12--10--12--8--12--7--12--|
F|9--12--11--12--x4|8--11--9--11--x2|------------------------------|
C|-----------------|----------------|------------------------------|
G|-----------------|----------------|------------------------------|
C|-----------------|----------------|------------------------------|

D|-----------------|------------11--14--11--------------------------------------|
A|8--12--10--12----|--------13--------------13--------------15--13--12----------|
F|---------------x4|11--14----------------------14--11--14--------------14--11--|
C|-----------------|------------------------------------------------------------|
G|-----------------|------------------------------------------------------------|
C|-----------------|------------------------------------------------------------|

D|-----------------|--------------------------------------|
A|-----------------|--------------------------------------|
F|9--12--11--12--x4|9--11--12--8--9--11--11--12--14--16*--|
C|-----------------|--------------------------------------|
G|-----------------|--------------------------------------|
C|-----------------|--------------------------------------|

D|----------------|--------------------------------------|
A|----------------|--------------------------------------|
F|8--11--9--11--x4|8--9--11--9--11--12--11--12--14--16*--|
C|----------------|--------------------------------------|
G|----------------|--------------------------------------|
C|----------------|--------------------------------------|

D|---------------|5-----------5--8--5-----------5--8/11--8-|
A|8--12--10--12--|---7-----7-----------7-----7-------------|
F|---------------|------8-----------------8----------------|
C|---------------|-----------------------------------------|
G|---------------|-----------------------------------------|
C|---------------|-----------------------------------------|

D|-------------8/14--11--------------11--14--|
A|-10------10------------13------13----------|
F|-----11--------------------14--------------|
C|-------------------------------------------|
G|-------------------------------------------|
C|-------------------------------------------|

D|20--17------17----------------------------------|
A|--------19------19------19----------------------|
F|--------------------20------20--17--20--17------|
C|--------------------------------------------19--|
G|------------------------------------------------|
C|------------------------------------------------|

D|---------------17h20p17------17h20p17-------------------------|
A|-----------19------------19------------19---------------------|
F|----17h20----------------------------------20p17--------------|
C|19------------------------------------------------19------17~~|
G|------------------------------------------------------21------|
C|--------------------------------------------------------------|


************************************

| x  Dead note
| *  Natural harmonic
| /  Slide up
| h  Hammer-on
| p  Pull-off
| ~  Vibrato

************************************
Suggest correction
comments
print report bad tab
1 comment total.
0 reply
surrenderX 10 Aug 16, 2011 10:30 PM

Will you tab this whole song on Guitar pro Pleaseeeeee?

guest
You may want to rate the tab now too:
select rating
Wanna post a correction for this tab? Suggest correction