Oops, an error
Loading. Please wait.

I Hate Everyone chords

1,561 views 36 this week
2 commentsread comments
1 2 3 4 5
x 4
add to favorites
×
Save as Personal and add changes to this tab that will be seen only by you. Learn more ›
×
You can save this tab as Personal to edit and correct it or add notes. All changes will be seen only by you. Learn more »
launch autoscroll
font size
0
reset
transpose
0
reset
simplify chords
display chords
guitar tuner
edit
Autoscroll
slow
fast
+/-
esc
set tempo
stop
Strumming
There is no strumming pattern for this song yet. and get +5 IQ
I HATE EVERYONE

(Verse)
E5      Db5          Ab5
I had a bad day once again
A5
Please leave me alone
E5            Db5              Ab5
There must be something I have missed
A5
Where did I go wrong
E5               Db5         Ab5
You fucked me up you have no clue
            A5
It’s what I get for trusting you
E5         Db5         Ab5   A5
You’re the only reason that
       E5     Db5     Ab5    A5
I hate everyone

E5     Db5     Ab5    A5

(Pre-chorus)
E5                            A5
I’m sick and tired of all the things
                       
That keep you away from me
E5                       A5
You go run and tell your friends 

That I’ am the enemy

e|---------------------------------|
B|-----9-----9-------9------9------|
G|--9----11-------9-----11---------|
D|---------------------------------|
A|---------------------------------|
E|---------------------------------|
I hate this house I hate your mom

e|---------------------------------|
B|-----9-----9-----12--9-----9-----|
G|--9----11--------------11--------|
D|---------------------------------|
A|---------------------------------|
E|---------------------------------|
And fuck your friends I hate them all

e|------------------------------------------------------|
B|-----9-----9-------9------9------9----9---12----------|
G|--9----11-------9-----11------9----11-----------------|
D|------------------------------------------------------|
A|------------------------------------------------------|
E|------------------------------------------------------|
You’re the only reason that

(Chorus)
E5     Db5     Ab5    A5
I hate everyone
E5     Db5     Ab5    A5
I hate everyone       I hate everyone
E5                    Db5            Ab5         
You’re always talking shit behind my back
                A5                        
And smile to my face what’s up with that
E5             Db5           Ab5     A5
And you’re the reason that I have to hate everyone

(Pre-chorus)
E5                     A5
So good luck on fixing me
                      
And what we could have been
E5                        A5
But you’ll always fail to see

I’m forever broken

e|---------------------------------|
B|-----9-----9-------9------9------|
G|--9----11-------9-----11---------|
D|---------------------------------|
A|---------------------------------|
E|---------------------------------|
  I hate your guts I hate his too

e|---------------------------------|
B|-----9-----9-----12--9-----9-----|
G|--9----11--------------11--------|
D|---------------------------------|
A|---------------------------------|
E|---------------------------------|
  I hate myself for loving you

e|------------------------------------------------------|
B|-----9-----9-------9------9------9----9---12----------|
G|--9----11-------9-----11------9----11-----------------|
D|------------------------------------------------------|
A|------------------------------------------------------|
E|------------------------------------------------------|
You’re the only reason that

(Chorus)
       E5     Db5     Ab5    A5
I hate everyone
       E5     Db5     Ab5    A5
I hate everyone
       E5
I hate everyone       
                      Db5            Ab5         
You’re always talking shit behind my back
                A5                        
And smile to my face what’s up with that
E5             Db5           Ab5     A5
And you’re the reason that I have to hate everyone

(Bridge)
Oh my dear I’ve seen better days

Because this is the worst day ever

And i do hate everyone

But for you, you are the only exception
             E5     Db5     Ab5    A5
Everyone but you

(Chorus)
       E5     Db5   Ab5    A5
I hate everyone       
       E5
I hate everyone
                      Db5            Ab5         
You’re always talking shit behind my back
                A5                        
And smile to my face what’s up with that
E5          Db5           Ab5
If just you only knew the truth
A5                  E5     Db5     Ab5    A5
I hate everyone but you

(Chorus)
       E5     Db5     Ab5    A5
I hate everyone
       E5     
I hate everyone       
                      Db5            Ab5         
You’re always talking shit behind my back
                A5                        
And smile to my face what’s up with that
E5          Db5           Ab5
If just you only knew the truth
A5                  E5     Db5     Ab5    A5
I hate everyone but you

(Chorus)
       E5     Db5     Ab5    A5
I hate everyone
       E5     
I hate everyone       
                      Db5            Ab5         
You’re always talking shit behind my back
                A5                        
And smile to my face what’s up with that
E5             Db5           Ab5     A5
And you’re the reason that I have to hate everyone

(Outro)
E5     Db5     Ab5    A5

E5     Db5     Ab5    A5

E5     Db5     Ab5    A5

e|--------------------------------------------------------|
B|-----9-----9-------9------9------9----9---12--9-----9---|
G|--9----11-------9-----11------9----11-----------11------|
D|--------------------------------------------------------|
A|--------------------------------------------------------|
E|--------------------------------------------------------|

E5     Db5     Ab5    A5

e|--------------------------------------------------------|
B|-----9-----9-------9------9------9----9---12------------|
G|--9----11-------9-----11------9----11-------------------|
D|--------------------------------------------------------|
A|--------------------------------------------------------|
E|--------------------------------------------------------|

            
            
Suggest correction
Creating personal tab
Creating personal tab
You can edit any tab online and save it as your Personal.

You can edit, replace or remove any tab part or add personal notes – all changes will be seen only by you.

Personal tabs can be accessed anytime from any device, even offline.
Learn more »
comments
print report bad tab
2 comments total.
+5 reply
aidanh49 10 Apr 24, 2017 12:56 AM

Please make it so that the chords are linked on the page so i can easily see how to play it rather than having to google each one

0 reply
nicoliwilson199 12 May 06, 2017 06:47 PM, edited at 10:47 pm

i think this is 5 star accurate. for people who want to have a more full sound with an acoustic, may i recommend EM, Dbm, Abm, AM as the main progression

guest
You may want to rate the tab now too:
select rating
Wanna post a correction for this tab? Suggest correction