Oops, an error
Loading. Please wait.

Rolling Stone bass

version 2
version 2

Whole song

1,182 views 1 this week
no commentswrite comment
1 2 3 4 5
x 4
add to favorites
×
Save as Personal and add changes to this tab that will be seen only by you. Learn more ›
×
You can save this tab as Personal to edit and correct it or add notes. All changes will be seen only by you. Learn more »
launch autoscroll
font size
0
reset
guitar tuner
edit
Autoscroll
slow
fast
+/-
esc
set tempo
stop
0:11
F|---------------------------------------------------------------------|
C|---------------------------------------------------------------------|
G|---------------------5-3-----------------------------5-3-------------|
C|-12\-0---2-3-0-3-2-3-----3-2---3-2-3-0---2-3-0-3-2-3-----3-2---3-2-5-|
   4 + 1 + 2 + 3 + 4 + 1 + 2 + 3 + 4 + 1 + 2 + 3 + 4 + 1 + 2 + 3 + 4 +

F|-----------------------------------------------------------------|
C|-----------------------------------------------------------------|
G|-----------------5-3-----------------------------5-3---------5---|
C|-0---2-3-0-3-2-3-----3-2---3-2-3-0---2-3-0-3-2-3-----3-2---3-----|
   1 + 2 + 3 + 4 + 1 + 2 + 3 + 4 + 1 + 2 + 3 + 4 + 1 + 2 + 3 + 4 +

0:22 Verse
F|-----------------------------------------------------------------|
C|-----------------------------------------------------------------|
G|-----------------------------------------------------------------|
C|-0-----000-----000-0---0---0-3---0-----000-----000-0---0---0-6---|
   1 + 2 + 3 + 4 + 1 + 2 + 3 + 4 + 1 + 2 + 3 + 4 + 1 + 2 + 3 + 4 +

F|-----------------------------------------------------------------|
C|-----------------------------------------------------------------|
G|-------------------------------------------------------------3---|
C|-0-----000-----000-0---0---0-3---0-----000-----000-0---0-3-0-----|
   1 + 2 + 3 + 4 + 1 + 2 + 3 + 4 + 1 + 2 + 3 + 4 + 1 + 2 + 3 + 4 +

F|-----------------------------------------------------------------|
C|-----------------------------------------------------------------|
G|-----------------------------------------------------------------|
C|-0-----000-----000-0---0---0-3---0-----000-----000-0---0---0-6---|
   1 + 2 + 3 + 4 + 1 + 2 + 3 + 4 + 1 + 2 + 3 + 4 + 1 + 2 + 3 + 4 +

F|-----------------------------------------------------------------|
C|-----------------------------------------------------------------|
G|-----------------------------------------------------------------|
C|-0-----000-----000-0---0---0-3---0-----000-----000---------------|
   1 + 2 + 3 + 4 + 1 + 2 + 3 + 4 + 1 + 2 + 3 + 4 + 1 + 2 + 3 + 4 +

0:45 Chorus
F|-----------------------------------------------------------------|
C|-----------------------------------------------------------------|
G|-1-1-1-1-1-1-1-1-----------------3-3-3-3-3-3-3-3-----------------|
C|-----------------0-0-0-0-0-0-0-0-----------------3-3-3-3-2-2-2-2-|
   1 + 2 + 3 + 4 + 1 + 2 + 3 + 4 + 1 + 2 + 3 + 4 + 1 + 2 + 3 + 4 +

F|-----------------------------------------------------------------|
C|-----------------------------------------------------------------|
G|-1-1-1-1-1-1-1-1-----------------3-3-3-3-3-3-3-3-----------------|
C|-----------------0-0-0-0-0-0-0-0-----------------3-3-3-3-2-2-2-2-|
   1 + 2 + 3 + 4 + 1 + 2 + 3 + 4 + 1 + 2 + 3 + 4 + 1 + 2 + 3 + 4 +

F|------------------------------------------------------------------|
C|------------------------------------------------------------------|
G|-8-8-8-8-8-7-8-10-7-7-7-7-7-5-7-8-5-5-5-5-5-3-5-7-3-3-3-3-3-3-3-3-|
C|------------------------------------------------------------------|
   1 + 2 + 3 + 4 +  1 + 2 + 3 + 4 + 1 + 2 + 3 + 4 + 1 + 2 + 3 + 4 +

F|-----------------------------------------------------------------|
C|-----------------------------------------------------------------|
G|-1-1-1-1-1-1-1-1-----------------3-3-3-3-3-3-3-3-4-4-4-4-4-4-4-4-|
C|-----------------3-3-3-3-3-3-3-3---------------------------------|
   1 + 2 + 3 + 4 + 1 + 2 + 3 + 4 + 1 + 2 + 3 + 4 + 1 + 2 + 3 + 4 +

1:07 Interlude
F|-----------------------------------------------------------------|
C|-----------------------------------------------------------------|
G|-----------------5-3-----------------------------5-3-------------|
C|-0---2-3-0-3-2-3-----3-2---3-2-3-0---3---0-3-2-3-----3-2---3---5-|
   1 + 2 + 3 + 4 + 1 + 2 + 3 + 4 + 1 + 2 + 3 + 4 + 1 + 2 + 3 + 4 +

1:12 Verse
F|-----------------------------------------------------------------|
C|-----------------------------------------------------------------|
G|-----------------------------------------------------------------|
C|-0-----000-----000-0---0---0-3---0-----000-----000-0---0---0-6---|
   1 + 2 + 3 + 4 + 1 + 2 + 3 + 4 + 1 + 2 + 3 + 4 + 1 + 2 + 3 + 4 +

F|-----------------------------------------------------------------|
C|-----------------------------------------------------------------|
G|-------------------------------------------------------------3---|
C|-0-----000-----000-0---0---0-3---0-----000-----000-0---0-3-0-----|
   1 + 2 + 3 + 4 + 1 + 2 + 3 + 4 + 1 + 2 + 3 + 4 + 1 + 2 + 3 + 4 +

F|-----------------------------------------------------------------|
C|-----------------------------------------------------------------|
G|-----------------------------------------------------------------|
C|-0-----000-----000-0---0---0-3---0-----000-----000-0---0---0-6---|
   1 + 2 + 3 + 4 + 1 + 2 + 3 + 4 + 1 + 2 + 3 + 4 + 1 + 2 + 3 + 4 +

F|-----------------------------------------------------------------|
C|-----------------------------------------------------------------|
G|-----------------------------------------------------------------|
C|-0-----000-----000-0---0---0-3---0-0-0-0-0-0-0-0-12--\---\---\---|
   1 + 2 + 3 + 4 + 1 + 2 + 3 + 4 + 1 + 2 + 3 + 4 + 1 + 2 + 3 + 4 +

1:35 Chorus
F|-----------------------------------------------------------------|
C|-----------------------------------------------------------------|
G|-1-1-1-1-1-1-1-1-----------------3-3-3-3-3-3-3-3-----------------|
C|-----------------0-0-0-0-0-0-0-0-----------------3-3-3-3-2-2-2-2-|
   1 + 2 + 3 + 4 + 1 + 2 + 3 + 4 + 1 + 2 + 3 + 4 + 1 + 2 + 3 + 4 +

F|-----------------------------------------------------------------|
C|-----------------------------------------------------------------|
G|-1-1-1-1-1-1-1-1-----------------3-3-3-3-3-3-3-3-----------------|
C|-----------------0-0-0-0-0-0-0-0-----------------3-3-3-3-2-2-2-2-|
   1 + 2 + 3 + 4 + 1 + 2 + 3 + 4 + 1 + 2 + 3 + 4 + 1 + 2 + 3 + 4 +

F|------------------------------------------------------------------|
C|------------------------------------------------------------------|
G|-8-8-8-8-8-7-8-10-7-7-7-7-7-5-7-8-5-5-5-5-5-3-5-7-3-3-3-3-3-3-3-3-|
C|------------------------------------------------------------------|
   1 + 2 + 3 + 4 +  1 + 2 + 3 + 4 + 1 + 2 + 3 + 4 + 1 + 2 + 3 + 4 +

F|---------------------------------------------------------------------------------|
C|---------------------------------------------------------------------------------|
G|-1-1-1-1-1-1-1-1-----------------3-3-3-3-3-3-3-3-4-4-4-4-4-4-4-4-----------------|
C|-----------------3-3-3-3-3-3-3-3---------------------------------12--\---\---\---|
   1 + 2 + 3 + 4 + 1 + 2 + 3 + 4 + 1 + 2 + 3 + 4 + 1 + 2 + 3 + 4 + 1 + 2 + 3 + 4 +

Rap

2:18
F|-----------------------------------------------------------------|
C|-0---0---0---0---0---0---0---0---2---2---2---2---2---2---2---2---|
G|-----------------------------------------------------------------|
C|-----------------------------------------------------------------|
   1 + 2 + 3 + 4 + 1 + 2 + 3 + 4 + 1 + 2 + 3 + 4 + 1 + 2 + 3 + 4 +

F|---------------------------------------------------------------------------------|
C|-3---3---3---3---3---3---3---3---5---5---5---5-----------------------------------|
G|---------------------------------------------------------------------------------|
C|-----------------------------------------------------------------12--\-----------|
   1 + 2 + 3 + 4 + 1 + 2 + 3 + 4 + 1 + 2 + 3 + 4 + 1 + 2 + 3 + 4 + 1 + 2 + 3 + 4 +

Electronic

Breakdown 2:41
F|-----------------------------------------------------------------|
C|-----------------------------------------------------------------|
G|-----------------------------------------------------------------|
C|-12--\-----------000-000-000-000-----------------00------00--0---|
   1 + 2 + 3 + 4 + 1 + 2 + 3 + 4 + 1 + 2 + 3 + 4 + 1 + 2 + 3 + 4 +

F|-----------------------------------------------------------------|
C|-----------------------------------------------------------------|
G|-----------------------------------------------------------------|
C|-0---------------000-000-00--00------------------12--\-----------|
   1 + 2 + 3 + 4 + 1 + 2 + 3 + 4 + 1 + 2 + 3 + 4 + 1 + 2 + 3 + 4 +

Rest  

Chorus
F|----------------------------------------------------------------------------------|
C|----------------------------------------------------------------------------------|
G|-8-8-8-8-7-7-7-7-8-8-8-8-8-7-8-10-7-7-7-7-7-5-7-8-5-5-5-5-5-3-5-7-3-3-3-3-3-3-3-3-|
C|----------------------------------------------------------------------------------|
   1 + 2 + 3 + 4 + 1 + 2 + 3 + 4 +  1 + 2 + 3 + 4 + 1 + 2 + 3 + 4 + 1 + 2 + 3 + 4 +

F|-------------------------------------------------------------------------|
C|-------------------------------------------------------------------------|
G|-1-1-1-1-1-1-1-1-----------------3-3-3-3-3-3-3-3-15-15-15-15-15-15-15-15-|
C|-----------------3-3-3-3-3-3-3-3-----------------------------------------|
   1 + 2 + 3 + 4 + 1 + 2 + 3 + 4 + 1 + 2 + 3 + 4 + 1  +  2  +  3  +  4  +

Key Change
F|-----------------------------------------------------------------|
C|-----------------------------------------------------------------|
G|-3---3-3-3-3---5-------------------------------------------------|
C|-----------------2---2-2-2-2---2-0---0-0-0-0-0-0-5-5-5-5-4-4-4-4-|
   1 + 2 + 3 + 4 + 1 + 2 + 3 + 4 + 1 + 2 + 3 + 4 + 1 + 2 + 3 + 4 +

F|-----------------------------------------------------------------|
C|-----------------------------------------------------------------|
G|-3---3-3-3-3---5-7---7-7-7-7---7---------------------------------|
C|---------------------------------0---0-0-0---0---5---5---4---4---|
   1 + 2 + 3 + 4 + 1 + 2 + 3 + 4 + 1 + 2 + 3 + 4 + 1 + 2 + 3 + 4 +

F|-----------------------------------------------------------------|
C|-5---5-5-5-4-5-7-4---4-4-4-2-4-5-2---2-2-2-0-2-4-0---0---0---0---|
G|-----------------------------------------------------------------|
C|-----------------------------------------------------------------|
   1 + 2 + 3 + 4 + 1 + 2 + 3 + 4 + 1 + 2 + 3 + 4 + 1 + 2 + 3 + 4 +

F|-----------------------------------------------------------------|
C|-----------------------------------------------------------------|
G|-3---3-3-3-3---0-----------------5-5-5-5-5-5-5-5-6--6--6-6--6--6-|
C|-----------------5---5-5-5-5-5-5---------------------------------|
   1 + 2 + 3 + 4 + 1 + 2 + 3 + 4 + 1 + 2 + 3 + 4 + Triplet Triplet

3:36 Outro
F|-----------------------------------------------------------------|
C|-----------------------------------------------------------------|
G|-----------------7-5-----------------------------7-5-------------|
C|-2-2-4-5-2-5-4-5-----5-4---5-4-5-2-2-4-5-2-5-4-5-----5-4---5-4-7-|
   1 + 2 + 3 + 4 + 1 + 2 + 3 + 4 + 1 + 2 + 3 + 4 + 1 + 2 + 3 + 4 +

F|-----------------------------------------------------------------|
C|-----------------------------------------------------------------|
G|-----------------7-5-----------------------------7-5---7-5---7---|
C|-2-2-4-5-2-5-4-5-----5-4---5-4-5-2---5---2-5-4-5-----5-----5---2-|
   1 + 2 + 3 + 4 + 1 + 2 + 3 + 4 + 1 + 2 + 3 + 4 + 1 + 2 + 3 + 4 +

Tabbed by Dave Vucko

            
            
Suggest correction
Creating personal tab
Creating personal tab
You can edit any tab online and save it as your Personal.

You can edit, replace or remove any tab part or add personal notes – all changes will be seen only by you.

Personal tabs can be accessed anytime from any device, even offline.
Learn more »
comments
print report bad tab
guest
You may want to rate the tab now too:
select rating
Wanna post a correction for this tab? Suggest correction