Oops, an error
Loading. Please wait.

Sink Or Swim Tab

version 1
version 1

Whole song

Interactive

9,841 views 6 this week
no commentswrite comment
1 2 3 4 5
x 4
add to favorites
launch autoscroll
font size
0
reset
how to read this tab
guitar tuner
×
Best way to learn
"Sink Or Swim"
Autoscroll
slow
fast
+/-
esc
set tempo
stop
                       (Guitar 1)
D|--------------------------------------------------------------------|
A|--------------------------------------------------------------------|
F|--------------------------------------------------------------------|
C|--------------------------------------------------------------------|
G|-0-0000000-0000008-8888888-8888885-5555555-5555550-0000000-000000---|
C|-0-0000000-0000008-8888888-8888885-5555555-5555550-0000000-000000---|

(Repeat above as needed)

                      (Guitar 2)
D|-------------------------------------------------------------------|
A|-------------------------------------------------------------------|
F|-------------------------------------------------------------------|
C|-------------------------------------------------------------------|
G|-5-8-7-8-5-8-7-8-5-8-7-8-5-8-7-8-5-8-7-8-5-8-7-8-5-8-7-8-5-8-7-8---|
C|-------------------------------------------------------------------|

D|-------------------------------------------------------------------|
A|-------------------------------------------------------------------|
F|-------------------------------------------------------------------|
C|-5-8-7-8-5-8-7-8-5-8-7-8-5-8-7-8-5-8-7-8-5-8-7-8-5-8-7-8-5-8-7-8---|
G|-------------------------------------------------------------------|
C|-------------------------------------------------------------------|

D|-------------------------------------------------------------------|
A|-------------------------------------------------------------------|
F|-------------------------------------------------------------------|
C|-------------------------------------------------------------------|
G|-7-10-8-10-7-10-8-10-7-10-8-10-7-10-8-10-7-10-8-10-7-10-8-10-------|
C|-------------------------------------------------------------------|

D|-------------------------------------------------------------------|
A|-------------------------------------------------------------------|
F|-------------------------------------------------------------------|
C|-------------------------------------------------------------------|
G|-7-10-8-10-7-10-8-10-----------------------------------------------|
C|-------------------------------------------------------------------|

D|-17-15-13--15-13-----13--------------------------------------------|
A|---------17-----17-15--17-15-13-17-15-13---------------------------|
F|----------------------------------------15-14----------------------|
C|-----------------------------------------------0-------------------|
G|-----------------------------------------------0-------------------|
C|-----------------------------------------------0-------------------|



                     "Brace for impact!"
                         (Guitar 1)
D|-------------------------------------------------------------------|
A|-------------------------------------------------------------------|
F|--------------------------------------------6---9------------------|
C|--------------------------------------------x---x------------------|
G|-000000000-0-000-00000000-000000000-0-000-0-4-0-7-555555555-5-555--|
C|-000000000-0-000-00000000-000000000-0-000-0---0---555555555-5-555--|

D|-------------------------------------------------------------------|
A|-------------------------------------------------------------------|
F|----------------------------6---9----------------------------------|
C|----------------------------x---x----------------------------------|
G|-55555555-555555555-5-555-0-4-0-7----------------------------------|
C|-55555555-555555555-5-555-0---0------------------------------------|

(Guitar 2, sweep picking)
D|-------------13-17-13----------13-17-13----------------------------|
A|----------15----------15----15----------15-------------15----------|
F|-------14----------------14----------------14-------14-------------|
C|----15-------------------------------------------15----------------|
G|-17-------------------------------------------17-------------------|
C|-------------------------------------------------------------------|

D|-13-17-13----------13-17-13-------------------13-17-13-------------|
A|----------15----15----------15-------------15----------15----------|
F|-------------14----------------14-------14----------------14-------|
C|-------------------------------------15----------------------------|
G|----------------------------------17-------------------------------|
C|-------------------------------------------------------------------|

D|-------------13-17-13----------13-17-13----------------------------|
A|----------15----------15----15----------15-------------15----------|
F|-------14----------------14----------------14-------14-------------|
C|----15-------------------------------------------15----------------|
G|-17-------------------------------------------17-------------------|
C|-------------------------------------------------------------------|

D|-13-17-13----------13-17-13-------------------13-17-13-------------|
A|----------15----15----------15-------------15----------15----------|
F|-------------14----------------14-------14----------------14-------|
C|-------------------------------------15----------------------------|
G|----------------------------------17-------------------------------|
C|-------------------------------------------------------------------|

D|-------------10-15-10----------10-15-10----------------------------|
A|----------11----------11----11----------11-------------11----------|
F|-------10----------------10----------------10-------10-------------|
C|----12-------------------------------------------12----------------|
G|-13-------------------------------------------13-------------------|
C|-------------------------------------------------------------------|

D|-10-15-10----------10-15-10-------------------10-15-10-------------|
A|----------11----11----------11-------------11----------11----------|
F|-------------10----------------10-------10----------------10-------|
C|-------------------------------------12----------------------------|
G|----------------------------------13-------------------------------|
C|-------------------------------------------------------------------|

D|-------------10-15-10----------10-15-10----------------------------|
A|----------11----------11----11----------11-------------11----------|
F|-------10----------------10----------------10-------10-------------|
C|----12-------------------------------------------12----------------|
G|-13-------------------------------------------13-------------------|
C|-------------------------------------------------------------------|

D|-22-17-13-----------------|
A|----------15--------------|
F|-------------14-----------|
C|----------------15--------|
G|-------------------17-----|
C|--------------------------|



(Chorus, Both Guitars)
D|-------------------------------------------------------------------|
A|-------------------------------------------------------------------|
F|-12-14-14-14-12-12-12-12-10-10-10-10-10-10-10-12-14-14-14-12-12-12-|
C|-x--x--x--x--x--x--x--x--x--x--x--x--x--x--x--x--x--x--x--x--x--x--|
G|-10-12-12-12-10-10-10-10-8--8--8--8--8--8--8--10-12-12-12-10-10-10-|
C|-------------------------------------------------------------------|

D|-------------------------------------------------------------------|
A|-------------------------------------------------------------------|
F|-------------------------------------------------------------------|
C|-12-10-10-10-10-10-10-10-7--10-10-10-10-9--9--9--------------------|
G|-x--x--x--x--x--x--x--x--x--x--x--x--x--x--x--x--------------------|
C|-10-8--8--8--8--8--8--8--5--8--8--8--8--7--7--7--------------------|

D|-------------------------------------------------------------------|
A|-------------------------------------------------------------------|
F|-9-10-10-10-10-10-10-10-12-12-12-12-12-12-12-12--------------------|
C|-x-x--x--x--x--x--x--x--x--x--x--x--x--x--x--x---------------------|
G|-7-8--8--8--8--8--8--8--10-10-10-10-10-10-10-10--------------------|
C|-------------------------------------------------------------------|

D|-------------------------------------------------------------------|
A|-------------------------------------------------------------------|
F|-15-15-15-15-15-15-15-15-------------------------------------------|
C|-x--x--x--x--x--x--x--x--------------------------------------------|
G|-13-13-13-13-13-13-13-13-------------------------------------------|
C|-------------------------------------------------------------------|
^Play that 2x

(Verse 2 is the same as the first verse except there is no sweeping part)

(Then, repeat the chorus.)

(After the chorus, then he starts singing "I bid farewell...." When the guitar starts, 
you will play open notes, you can find out the strum pattern, it's not that hard.)

THEN, he'll say "I know someday you'll get what you deserve" When he screams "And after 
all!!!" , A guitar comes in the background doing something like this.... I think its 
accurate. Repeat until chorus starts again.

                    (Guitar 2)
D|-13--13--13--13--13--13--13--13--13--------------------------------|
A|---17--17--17--17--17--17--17--17--17------------------------------|
F|-------------------------------------------------------------------|
C|-------------------------------------------------------------------|
G|-------------------------------------------------------------------|
C|-------------------------------------------------------------------|

You know how the chorus goes here, so have fun!!! oh yeah last note is...
D|---|
A|---|
F|---|
C|-0-|
G|-0-|
C|-0-|
Suggest correction
comments
print report bad tab
guest
You may want to rate the tab now too:
select rating
Wanna post a correction for this tab? Suggest correction