Oops, an error
Loading. Please wait.

This Is Not The End Tab

271 views 1 this week
no commentswrite comment
1 2 3 4 5
please rate
add to favorites
launch autoscroll
font size
0
reset
how to read this tab
guitar tuner
Tab Pro tools
  • play this tab
  • loop segment
  • change instrument
  • show fretboard
  • metronome
×
Best way to learn
"This Is Not The End"
Autoscroll
slow
fast
+/-
esc
set tempo
stop
Contributor
Difficulty
Tuning
intermediate
C G C F A D
FALLING IN REVERSE
THIS IS NOT THE END
DROP C
Technically, this is Old Escape the Fate (unReleased) but FIR have released it so..
either way you found the tab. By being old ETF, I chose Drop C.
Which worked pretty well seeing im writing this after tabbing it

I think both guitars are doing the same thing most of the time ;\



Intro 0:02
D|----------------------------------------------------------------------|
A|----------------------------------------------------------------------|
F|----------------------------------------------------------------------|
C|--3-3--------------------3-3----------3-3-3-3-3-3-3-3-3-3-3-3-3-3-3-3-|
G|--3-3--------------------3-3----------3-3-3-3-3-3-3-3-3-3-3-3-3-3-3-3-|
C|--3-3--------------------3-3----------3-3-3-3-3-3-3-3-3-3-3-3-3-3-3-3-|
                                        * * * * * * * * * * * * * * * *


Da HaPPy RifF 0:11 ((Bass does backing chord/notes)3,5,8,10) on bottom string)
D|----------------------|--|------------------------------------------------------------------------|
A|----------------------|--|------------------------13h15p13-----13h15-17bp15\13----13--------------|
F|----------------------|--|-------10~--12p10h12/14----------14------------------14----14-12h14p12~~|
C|----10~-7~--8~-7~-----|x2|---12~------------------------------------------------------------------|
G|--8~--------------10~-|--|-8~---------------------------------------------------------------------|
C|----------------------|--|------------------------------------------------------------------------|
then
e|------------------------------|--|----------------------------------------------------------------|
B|-----13~-10~--11~-10h11p10/8~-|--|-----8~-10~-11~-13~-11~-10~-8~------------8~--------------------|
G|--10~-------------------------|--|-10~---------------------------10~-9~-10~----10~---9~~----------|
D|------------------------------|x2|----------------------------------------------------------------|
A|------------------------------|--|----------------------------------------------------------------|
E|------------------------------|--|----------------------------------------------------------------|
||
GTR2 In HaPPy RifF
D|-------------------------------------------------------------------|
A|-------------------------------------------------------------------|
F|--------------------------------------------------5-5-5-5-5-5-5-5~-|
C|--3-3-3-3-3-3-3-3-5-5-5-5-5-5-5-5-8-8-8-8-8-8-8-8-5-5-5-5-5-5-5-5~-|
G|--3-3-3-3-3-3-3-3-5-5-5-5-5-5-5-5-8-8-8-8-8-8-8-8-3-3-3-3-3-3-3-3~-|
C|--3-3-3-3-3-3-3-3-5-5-5-5-5-5-5-5-8-8-8-8-8-8-8-8------------------|





Verse 0:30 - 0:48
D|-----------------------------------------------------------------------------------------|
A|-----------------------------------------------------------------------------------------|
G|-10~10-10-10-10-10-10-10-10~10-10~-10~10~10~-12~12-12-12-12-12~12-12~12~12~12~-12~12~12~-|
C|-10~10-10-10-10-10-10-10-10~10-10~-10~10~10~-12~12-12-12-12-12-12-12-12~12-12~-12~12~12~-|
G|-8~-8--8--8--8--8--8--8--8~-8--8~--8~-8~-8~--10~12-12-10-10-10-10-10-10~10-10~-10~10~10~-|
C|-----------------------------------------------------------------------------------------|
||    *  *  *  *  *  *  *     *                   *  *  *  *  *  *  *     *
D|---------------------------------------------------------------|
A|---------------------------------------------------------------|
G|-7~-7-7-7-7-7-7-7-7~7-7~-7~7~7~--------------------------------|
C|-7~-7-7-7-7-7-7-7-7~7-7~-7~7~7~-8~-8-8-8-8-8-8-8-8~8-8~-8~8~8~-|
G|-5~-5-5-5-5-5-5-5-5~5-5~-5~5~5~-8~-8-8-8-8-8-8-8-8~8-8~-8~8~8~-|
C|--------------------------------8~-8-8-8-8-8-8-8-8~8-8~-8~8~8~-|
      * * * * * * *   *              * * * * * * *   *




Chorus 0:48 - 1:06
D|----------------------------------------------------------|
A|-----------------------(6)6)6)6)6)6)6)6)5)5)5)5)5)5)5)5)--|
F|------------------------7~7~7~7~7~7~7~7~5~5~5~5~5~5~5~5~--|
C|--3~3~3~~~---8~8~8~~~---7~7~7~7~7~7~7~7~5~5~5~5~5~5~5~5~--| x2
G|--3~3~3~~~---8~8~8~~~---5~5~5~5~5~5~5~5~3~3~3~3~3~3~3~3~--|
C|--3~3~3~~~---8~8~8~~~-------------------------------------|




              PLAY THE LAST BIT OF 'DA HAPPY RIFF'
                        VERSE and CHORUS AGAIN!!




1:51 Beeping Riff
GTR1
D|--13--13--13--13--13--13--13--13--13--13--13--13--13--13--13--13---|
A|-------------------------------------------------------------------|
F|-------------------------------------------------------------------|
C|-------------------------------------------------------------------|
G|-------------------------------------------------------------------|
C|-------------------------------------------------------------------|
GTR2
D|----------------------------------17--17--17--17--17--17--17-15-13-|
A|-------------------------------------------------------------------|
F|-------------------------------------------------------------------|
C|-------------------------------------------------------------------|
G|-------------------------------------------------------------------|
C|-------------------------------------------------------------------|




Fast riffs 2:01 (lower notes are slightly palm muted)
Try baring the 10th frets to make it easier
GTR1
D|----------------------------------------------------------------------13----10----------------|
A|--------13----13-------11----10----10h11p11\8----------13----13-------------------10h11p10\8--|
F|--10-10----10----10-10----10----10---------------10-10----10----10-10----10----10-------------|
C|----------------------------------------------------------------------------------------------| x4
G|----------------------------------------------------------------------------------------------|
C|----------------------------------------------------------------------------------------------|
GTR2
D|----------------------------------------------------------------------------------------------|
A|----------------------------------------------------------------------------------------------|
F|----------------------------------------------------------------------------------------------|
C|-------10----10--------8-----7-----7h8p7--------------10----10--------8-----7-----7h8p7-------| x4
G|--8--8-----8-----8--8-----8-----8--------8~------8--8-----8-----8--8-----8-----8--------8~----|
C|----------------------------------------------------------------------------------------------|




                              REPEAT THE CHORUS ( 2:19 - 2:37-)



LISTEN UP 'CAUSE THIS IS NOT THE END..
lol jokes it is..
D|------|
A|------|
F|------|
C|--3-3-|
G|--3-3-|
C|--3-3-|


DONE. fun song to play.
please rate & comment. cheers
99% CORRECT
comments
We did not receive enough feedback on this tab! Please rate:
print report bad tab
1 2 3 4 5
I want to post or [tab]
guest
You may want to rate the tab now too:
select rating
Please do not post tabs as comments. Select "correction" instead!