Oops, an error
Loading. Please wait.

Lock It chords

250 views 3 this week
no commentswrite comment
1 2 3 4 5
3 more votes to show rating
add to favorites
×
Save as Personal and add changes to this tab that will be seen only by you. Learn more ›
×
You can save this tab as Personal to edit and correct it or add notes. All changes will be seen only by you. Learn more »
launch autoscroll
font size
0
reset
transpose
0
reset
simplify chords
display chords
guitar tuner
edit
Autoscroll
slow
fast
+/-
esc
set tempo
stop
Author
Strumming
There is no strumming pattern for this song yet. and get +5 IQ
Falling Joys - Lock It

Awesome song from a great Canberra band...message me with corrections or if you know the lyrics
in the outro!

Dsus2:  xx0230     G6:  320030     Asus:  x02230
D:      xx0232     G:   320033     A:     x02220
Am:     577555


[Intro]

Riff 1:
   Dsus2                             G6              Asus
e|---------------------------------|---------------------------------|
B|-3-------------------------------|---------------------------------|
G|-2-------------------------------|---------------------------------|
D|-0---------------------------3/4-|/5-----------5--/7---------------|
A|-------------3/4/5---------------|---------------------------------|
E|---------------------3/4/5-------|---------------------------------|

   Dsus2                             G
e|---------------------------------|-3-------------------------------|
B|-3-------------------------------|-3-------------------------------|
G|-2-------------------------------|-0-------------------------------|
D|-0-------------------------------|---------------------------------|
A|-------------3/4/5---------------|-----------------------------0---|
E|---------------------3/4/5-------|-------------1/2/3---------------|

Repeat Riff 1 and add Riff 2:

e|---------------------------------|---------------------------------|
B|-7---7---5---5---7---7-----------|-7---7---5---5---7---7-----------|
G|-------------------------7---7---|-------------------------7---7---|
D|---------------------------------|---------------------------------|
A|---------------------------------|---------------------------------|
E|---------------------------------|---------------------------------|

e|---------------------------------|---------------------------------|
B|-7---7---5---5---7---7-----------|-0-2/3---0-----------------------|
G|-------------------------7---7---|-------------2-------------------|
D|---------------------------------|---------------------------------|
A|---------------------------------|---------------------------------|
E|---------------------------------|---------------------------------|

Riffs continue through the verses, switching to chords in the instrumentals and choruses.


[Verse 1]

  Dsus2
I gave you a necklace in purple and blue
    G6                  Asus
You took it so gently I felt see-through
    Dsus2                              G
The sky was bright with the satellites
    Dsus2
The wire door slammed and the night began
   G6                     Asus
We drank and were together
         Dsus2                                          G
Then you laughed at the sound of the crowd around Christ
N.C.
I really like you


[Instrumental]

D  G  D  G


[Verse 2]

Dsus2
Sat on the steps and we watched the view
    G6                           Asus
The house was full but there was only you
Dsus2                                G
Time was right because you told it to
    Dsus2
You laughed at the way I moved around
    G6                 Asus
You said my feet never hit the ground
  Dsus2                               G
I looked away but then I couldn't move
N.C.
I really like you


[Chorus]

D         G   D         G 
Take it home, lock it up
G         D   G       A
Take it home, lock it up


[Verse 3]

Dsus2
Hear the sound of the cars downtown
       G6                    Asus
As the lighthouse sweeps its arms around
Dsus2                               G
Drive me home, I wanna see you alone
Dsus2
Beaded so fine like Spanish wine
   G6               Asus
My gift is yours so read my mind
Dsus2                          G
Let it be... You see through me
Dsus2
Sat on the steps with thoughts of you
    G6                Asus
The house was full, I couldn't move
Dsus2                                G
Time was right because you told it to
N.C.
I really like you


[Chorus]

D         G   D         G 
Take it home, lock it up
G         D   G       A
Take it home, lock it up


[Instrumental]

Am  G     D  Am  G     A


[Bridge]

  D
I gave you a necklace in purple and blue
    G                   A
You took it so gently I felt see-through


[Chorus]

D         G   D         G 
Take it home, lock it up
G         D   G       A
Take it home, lock it up


[Outro]

D      G      D      G    A
G      D      G      A

Repeat Chorus and fade


***********************************

| /   Slide up

***********************************

            
            
Suggest correction
Creating personal tab
Creating personal tab
You can edit any tab online and save it as your Personal.

You can edit, replace or remove any tab part or add personal notes – all changes will be seen only by you.

Personal tabs can be accessed anytime from any device, even offline.
Learn more »
Give kudos to tab author, rate the tab!
1 2 3 4 5
comments
print report bad tab
guest
You may want to rate the tab now too:
select rating
Wanna post a correction for this tab? Suggest correction