Oops, an error
Loading. Please wait.

Colgado De Una Nube tab

version 1
version 1

Whole song

17 views 1 this week
no commentswrite comment
1 2 3 4 5
3 more votes to show rating
add to favorites
×
Save as Personal and add changes to this tab that will be seen only by you. Learn more ›
×
You can save this tab as Personal to edit and correct it or add notes. All changes will be seen only by you. Learn more »
launch autoscroll
font size
0
reset
how to read this tab
guitar tuner
edit
Autoscroll
slow
fast
+/-
esc
set tempo
stop
FALLING KIDS - COLGADO DE UNA NUBE


Intro :

--------------------------------------------------------------
--------------------------------------------------------------
----------------------------------------------------6---------
-------7--6--7--------7--6--4--------7--9--7--7-----------9--7
-5--5-----------7--7-----------9--9--------------9-----9------
--------------------------------------------------------------

Estrofa :

--------------------------------------------------------------
--------------------------------------------------------------
-------------------------------------------------------7------
-------7--6--7--------7--6--7--------9--7--9--------------6--7
-5--5-----------7--7-----------9--9--------------9--9---------
--------------------------------------------------------------

Andas todo el dia por ahí,
no tienes edad para pensar vas
siempre de juerga, nada de responsabilidad.

Pre-Estribillo :

--------------------------------------------------------------
--------------------------------------------------------------
--------------------------------------------------------------
-------7--6--7--------7--6--7-----4--4----4--4--4--4----4--4--
-5--5-----------7--7--------------4--4----4--4--4--4----4--4--
----------------------------------2--2----2--2--2--4----2--2--

Vives a tu rollo, te da igual,
todo es un juego.


Estribillo :

--------------------------------------------------------------
--------------------------------------------------------------
-7--7---7--7--7--9---9--9--9--9--9--9---11--11--11--11--11----
-7--7---7--7--7--9---9--9--9--9--9--9---11--11--11--11--11----
-5--5---5--5--5--7---7--7--7--7--7--7----9---9---9---9---9----
--------------------------------------------------------------


--------------------------------------------------------------
--------------------------------------------------------------
--------------------------------------------------------------
-11--11--11--11--11--11--11-----------------------------------
-11--11--11--11--11--11--11-----------------------------------
--9---9---9---9---9--9---9------------------------------------


Colgado de una nube quiero estar,
viviendo dentro de mi propio sueño,
de espaldas a la cruda realidad,
sin despertar.
Colgado de una nube hasta el final,
viviendo dentro de un nuevo universo,
sin crecer, sin mi libertad.


Estrofa :

--------------------------------------------------------------
--------------------------------------------------------------
-------------------------------------------------------7------
-------7--6--7--------7--6--7--------9--7--9--------------6--7
-5--5-----------7--7-----------9--9--------------9--9---------
--------------------------------------------------------------

Ahora hay mil facturas que pagar,
buscate la vida y a currar ya
no eres un crio.
Donde esta la magia que senti,

Pre-Estribillo :

--------------------------------------------------------------
--------------------------------------------------------------
--------------------------------------------------------------
-------7--6--7--------7--6--7-----4--4----4--4--4--4----4--4--
-5--5-----------7--7--------------4--4----4--4--4--4----4--4--
----------------------------------2--2----2--2--2--4----2--2--

todas esas calles que pedi y hacer que empiezo


Estribillo :

--------------------------------------------------------------
--------------------------------------------------------------
-7--7---7--7--7--9---9--9--9--9--9--9---11--11--11--11--11----
-7--7---7--7--7--9---9--9--9--9--9--9---11--11--11--11--11----
-5--5---5--5--5--7---7--7--7--7--7--7----9---9---9---9---9----
--------------------------------------------------------------


--------------------------------------------------------------
--------------------------------------------------------------
--------------------------------------------------------------
-11--11--11--11--11--11--11-----------------------------------
-11--11--11--11--11--11--11-----------------------------------
--9---9---9---9---9--9---9------------------------------------

Colgado de una nube quiero estar,
viviendo dentro de mi propio sueño,
de espaldas a la cruda realidad,
sin despertar.
Colgado de una nube hasta el final,
viviendo dentro de un nuevo universo,
sin crecer, sin mi libertad.

Estrofa 2 :

--------------------------------------------------------------
--------------------------------------------------------------
--16--14--11--13----9--11-------------------------------------
---x---x---x---x----x---x-------------------------------------
--14--12---9--11----7---9-------------------------------------
--------------------------------------------------------------

Antes querias ser mayor,
ahora estoy de mierda hasta el mismo cuello,
el tiempo pasa en mi interior,
mientras se pudre mi ilusion, se muere mi ilusion.

Solo :

---------------------------------------------------------------
---------------------------------------------------------------
--18--18--18--18--18--18--18--18--16---------------------------
---x---x---x---x---x---x---x---x---x---------------------------
--16--16--16--16--16--16--16--16--14---------------------------
---------------------------------------------------------------

---------------------------------------------------------------
---------------------------------------------------------------
--16--16--16--16--16--16--16--18--16--14-----------------------
---x---x---x---x---x---x---x---x---x---x-----------------------
--14--14--14--14--14--14--14--16--14--12-----------------------
---------------------------------------------------------------

---------------------------------------------------------------
---------------------------------------------------------------
--18--18--18--18--18--18--18--18--16--16----16-----16---16-----
---x---x---x---x---x---x---x---x---x---------------------------
--16--16--16--16--16--16--16--16--14-----14----14----14---14---
---------------------------------------------------------------

---------------------------------------------------------------
---------------------------------------------------------------
--16--16-------------------------------------------------------
---x---x-------------------------------------------------------
--14--14-------------------------------------------------------
---------------------------------------------------------------


Estribillo :

--------------------------------------------------------------
--------------------------------------------------------------
-7--7---7--7--7--9---9--9--9--9--9--9---11--11--11--11--11----
-7--7---7--7--7--9---9--9--9--9--9--9---11--11--11--11--11----
-5--5---5--5--5--7---7--7--7--7--7--7----9---9---9---9---9----
--------------------------------------------------------------


--------------------------------------------------------------
--------------------------------------------------------------
--------------------------------------------------------------
-11--11--11--11--11--11--11-----------------------------------
-11--11--11--11--11--11--11-----------------------------------
--9---9---9---9---9--9---9------------------------------------


Colgado de una nube hasta el final,
viviendo dentro de un nuevo universo,
sin crecer, sin mi libertad.
Colgado de una nube quiero estar,
viviendo dentro de mi propio sueño,
sin crecer, sin despertar, sin mi libertad.


Outro :

--------------------------------------------------------------
--------------------------------------------------------------
--------------------------------------------------------------
-------7--6--7--------7--6--4--------7--9--7--11--11--9--7--12
-5--5-----------7--7-----------9--9---------------------------
--------------------------------------------------------------
Suggest correction
Creating personal tab
Creating personal tab
You can edit any tab online and save it as your Personal.

You can edit, replace or remove any tab part or add personal notes – all changes will be seen only by you.

Personal tabs can be accessed anytime from any device, even offline.
Learn more »
Give kudos to tab author, rate the tab!
1 2 3 4 5
comments
print report bad tab
guest
Wanna post a correction for this tab? Suggest correction