Oops, an error
Loading. Please wait.

Falling In Love Tab

15,417 views 3 this week
1 commentread comment
1 2 3 4 5
accurate
x 6
add to favorites
launch autoscroll
font size
0
reset
how to read this tab
guitar tuner
Tab Pro tools
  • play this tab
  • loop segment
  • change instrument
  • show fretboard
  • metronome
×
Best way to learn
"Falling In Love"
Autoscroll
slow
fast
+/-
esc
set tempo
stop
Tuning
D A D G B E
Artist:  Falling Up
Song:  “Falling in Love”
Album:  Crashings
Tuning:  drop D  D-A-D-G-B-E
* = harmonic
~ = hold note

Intro
E[--------------------------------------------]
B[--------------------------------------------]
G[--------*12--------*12--------10--------10--]
D[----10---------10---------10--------10------]
A[---8—--8------8—--8------8-—-8-----8—--8----]
D[-0----------0----------8---------8----------]

Verse “You are my…”
E[--------------------------------------------]
B[--------------------------------------------]
G[--------*12--------*12--------10--------10--]
D[----10---------10---------10--------10------]
A[---8—--8------8—--8------8-—-8-----8—--8----]x4
D[-0----------0----------8---------8----------]

Then
E[-----------]
B[-----------]
G[-----------]
D[-0~-0x0x0~-]
A[-0~-0x0x0~-]
D[-0~-0x0x0~-]

Chorus “All of my…”
E[--------------------------------------]
B[--------------------------------------]
G[-10--10--10—-10—-9-9-x-x-x—-9-9-x-x-x-]
D[-10--10--10—-10—-7-7-8-7-0—-7-7-8-7-0-]
A[--8—--8—--8-—-8—-0-0-5-5-0—-0-0-5-5-0-]x2
D[--8—--8—--8—--8—-0-0-5-5-0—-0-0-5-5-0-]

E[-------------]
B[-------------]
G[-10—-10—-10~-]
D[-10—-10—-10~-]
A[--8---8---8~-]
D[--8---8---8~-]

Verse2 “You reach me…”
E[--------------------------------------------]
B[--------------------------------------------]
G[--------*12--------*12--------10--------10--]
D[----10---------10---------10--------10------]
A[---8—--8------8—--8------8-—-8-----8—--8----]x3
D[-0----------0----------8---------8----------]

Then
E[----------------------]
B[----------------------]
G[-9-9-x-x-x—-9-9-x-x-x-]
D[-7—7-8-7-0—-7-7-8-7-0-]
A[-0—0-5-5-0—-0-0-5-5-0-]
D[-0—0-5-5-0—-0-0-5-5-0-]

Chorus “All of my…”
E[--------------------------------------]
B[--------------------------------------]
G[-10--10--10—-10-—9—9-x-x-x—-9—9-x-x-x-]
D[-10--10--10—-10-—7—7-8-7-0—-7—7-8-7-0-]
A[--8—--8—--8-—-8—-0—0-5-5-0—-0—0-5-5-0-]x2
D[--8—--8—--8—--8—-0—0-5-5-0—-0—0-5-5-0-]

E[-------------]
B[-------------]
G[-10--10—-10~-]
D[-10--10—-10~-]
A[--8—--8—--8~-]
D[--8—--8—--8~-]

Bridge (2:05) “Always…”
E[-----------------------------------------]
B[-5----5----5----5----5----5----5----5~---]
G[-5----5----5----5----5----5----5----5~---]
D[-3----3----3----3----3----3----3----3~---]
A[-0----1----0----1----0----1----0----1~---]
D[-x----x----x----x----x----x----x----x----]
(you can figure out the strumming)

Then
E[----------------------]
B[----------------------]
G[-9-9-x-x-x—-9-9-x-x-x-]
D[-7—7-8-7-0—-7-7-8-7-0-]
A[-0—0-5-5-0—-0-0-5-5-0-]
D[-0—0-5-5-0—-0-0-5-5-0-]

Chorus “All of my…”
E[--------------------------------------]
B[--------------------------------------]
G[-10--10--10—-10-—9—9-x-x-x—-9—9-x-x-x-]
D[-10--10--10—-10-—7—7-8-7-0—-7—7-8-7-0-]
A[--8—--8—--8-—-8—-0—0-5-5-0—-0—0-5-5-0-]x2
D[--8—--8—--8—--8—-0—0-5-5-0—-0—0-5-5-0-]

E[-------------]
B[-------------]
G[-10--10—-10~-]
D[-10--10—-10~-]
A[--8—--8—--8~-]
D[--8—--8—--8~-]


Bridge (3:06) “Love of my life…”
E[-----------------------------------------]
B[-----------------------------------------]
G[-----2---------2---------2---------2-----]
D[--0-3--3----0-3—-3----0-3—-3----0-3—-3---]
A[-----------0---------1---------0---------]
D[-5---------------------------------------]

E[--------------------]
B[-5-5-5—-5—-5-5-5—-5-]
G[-5-5-5—-5—-5-5-5-—5-]
D[-3-3-3—-3-—3-3-3-—3-]
A[-1-1-1—-1-—0-0-0—-0-] till end of song
D[-x-x-x—-x—-x-x-x—-x-]
comments
print report bad tab
1 comment total.
0 reply
sac wrote on December 13 2007, 11:23 am

One
correction...

E[--------------------------------------------]
B[--------------------------------------------]
G[---
-----*12--------*12--------10--------10--]
D[----10---------10---------10--------10------]
A[---8—--8------8—--8------
8-—-8-----8—--8----]
D[-0----------0----------8---------8----------]

should
be...

E[------------------------------------------------]
B[------------------------------------------------]
G[---
-------*12----------*12--------10--------10--]
D[------10-----------10---------10--------10------]
A[-----8—--8-------
-8—--8------8-—-8-----8—--8----]
D[-12*----------12*----------8---------8----------]

the first notes are harmonics
on the verse and intro and there is another guitar playing in the background in verse two.

I want to post or [tab]
guest
You may want to rate the tab now too:
select rating
Please do not post tabs as comments. Select "correction" instead!