Oops, an error
Loading. Please wait.

Transmission chords

19 views 1 this week
no commentswrite comment
1 2 3 4 5
3 more votes to show rating
add to favorites
×
Save as Personal and add changes to this tab that will be seen only by you. Learn more ›
×
You can save this tab as Personal to edit and correct it or add notes. All changes will be seen only by you. Learn more »
launch autoscroll
font size
0
reset
transpose
0
reset
display chords
guitar tuner
edit
Autoscroll
slow
fast
+/-
esc
set tempo
stop
Author
Difficulty
Strumming
There is no strumming pattern for this song yet. and get +5 IQ
Falling Up --- Transmission --- No Capo

Not 100% on the walkdown in the solo, any suggestions are welcome for accuracy there!

[Intro]
Dm C Bb Am  x2

[Verse 1]
Dm         C
Hold your cold little hands
    Bb                          Am
On wheels that will show your future
Dm          C
Show your fear that you know
     Bb                   Am
You know that you saw it shoot out

[Chorus]
     Dm      F                  C
Like stardust, don’t let it be lost like
Dm       F             C
Stardust, don’t let it go out there
Dm      F                  C
Stardust, don’t let it be lost like
Dm       F             C
Stardust, don’t let it go out there

[Instrumental]
Dm F C   x4

[Verse 2]
Dm       C
Dream of flying away 
     Bb                  Am
Of leaving your home by sunrise
    Dm         C
But don’t let ships get away
       Bb                   Am
Like planes in the dimming sunlight

[Instrumental]
Dm F C x4

[Chorus]
     Dm      F                  C
Like stardust, don’t let it be lost like
Dm       F             C
Stardust, don’t let it go out there
Dm      F                  C
Stardust, don’t let it be lost like
Dm       F             C
Stardust, don’t let it go out there

[Solo]
e|----13----12----10----8--10-------------------------10----13----12------8--10----------------------|
B|-10----10----------10-------10--8--11--10--------10----10----10------10-------10--8--11--10--------|
G|------------------------------------------10--7---------------------------------------------10--7--|
D|---------------------------------------------------------------------------------------------------|
A|---------------------------------------------------------------------------------------------------|
E|---------------------------------------------------------------------------------------------------|

e|----10-8-----------------13----12----10------8--10-------------------------10----13----12----8--10-|
B|-10------10-8---------10----10-----------10--------10--8--11--10--------10----10----10----10-------|
G|--------------10-9-7---------------------------------------------10--7-----------------------------|
D|---------------------------------------------------------------------------------------------------|
A|---------------------------------------------------------------------------------------------------|
E|---------------------------------------------------------------------------------------------------|

e|---------------------|
B|10--8--11--10--------|
G|--------------10--7--|
D|---------------------|
A|---------------------|
E|---------------------|

[Chorus]
     Dm      F                  C
Like stardust, don’t let it be lost like
Dm       F             C
Stardust, don’t let it go out there
Dm      F                  C
Stardust, don’t let it be lost like
Dm       F             C
Stardust, don’t let it go out there

[Outro]
Dm F C 

            
            
Suggest correction
Creating personal tab
Creating personal tab
You can edit any tab online and save it as your Personal.

You can edit, replace or remove any tab part or add personal notes – all changes will be seen only by you.

Personal tabs can be accessed anytime from any device, even offline.
Learn more »
Give kudos to tab author, rate the tab!
1 2 3 4 5
comments
print report bad tab
guest
You may want to rate the tab now too:
select rating
Wanna post a correction for this tab? Suggest correction