Oops, an error
Loading. Please wait.

Lacuna bass

version 1
version 1

Whole song

  • 5 String Bass Tab in B Standard Tuning.

Interactive

121 views 6 this week
1 commentread comment
1 2 3 4 5
2 more votes to show rating
add to favorites
×
Save as Personal and add changes to this tab that will be seen only by you. Learn more ›
×
You can save this tab as Personal to edit and correct it or add notes. All changes will be seen only by you. Learn more »
launch autoscroll
font size
0
reset
guitar tuner
edit
Autoscroll
slow
fast
+/-
esc
set tempo
stop
About this tab version
5 String Bass Tab in B Standard Tuning. Was this info helpful? Yes No
[Intro]
G|------------------------------------------------------------------------|
D|------------------------------------------------------------------------|
A|------------------------------------------------------------------------|
E|------------------------------------12----------------------------------|
B|10-10-10-10-10-10-10-10-10-10-10-10-------------10----------10----------|

G|---------------------------5-h7-p0--|
D|---------5-h7--5-h7-----------------|
A|0--0--0--------------5-h7-----------|
E|------------------------------------|
B|------------------------------------|

G|------------------------------------------------------------------------|
D|------------------------------------------------------------------------|
A|---------------------------------------------7--------7-----------------|
E|5--5-----7-----5--7-----5-----5-----------------------------------------|
B|------------------------------------6--6-----------6--------6-----6-----|

G|------------------------------------------------------------------------|
D|------------------------------------------------------------7-----------|
A|10h12-12-0--0--7--7-h10-10----------10h12-12-0--0--7--7--0-----0--7--5--|
E|---------------------------8--8-h12-------------------------------------|
B|------------------------------------------------------------------------|

G|------------------------------------------------------------------------|
D|------------------------------------------7-----------------5-----------|
A|10h12-12-0--0--7--7-h10-10-0--0--0--7--0-----0--7--5--5--0-----0--5--3--|
E|------------------------------------------------------------------------|
B|------------------------------------------------------------------------|

G|------------------------------------------------------------------------|
D|------------------------------------------------------------------------|
A|------------------------------------------------------------------------|
E|------------------------------------12----------------------------------|
B|10-10-10-10-10-10-10-10-10-10-10-10-------------10----------10----------|

G|---------------------------5-h7-p0--|
D|---------5-h7--5-h7-----------------|
A|0--0--0--------------5-h7-----------|
E|------------------------------------|
B|------------------------------------|

G|------------------------------------------------------------------------|
D|------------------------------------------------------------------------|
A|---------------------------------------------7--------7-----------------|
E|5--5-----7-----5--7-----5-----5-----------------------------------------|
B|------------------------------------6--6-----------6--------6-----6-----|

G|------------------------------------------------------------------------|
D|------------------------------------------------------------7-----------|
A|10h12-12-0--0--7--7-h10-10----------10h12-12-0--0--7--7--0-----0--7--5--|
E|---------------------------8--8-h12-------------------------------------|
B|------------------------------------------------------------------------|

G|------------------------------------------------------------------------|
D|------------------------------------------7-----------------5-----------|
A|10h12-12-0--0--7--7-h10-10-0--0--0--7--0-----0--7--5--5--0-----5--------|
E|------------------------------------------------------------------------|
B|------------------------------------------------------------------------|

[Verse riff]
G|------------------------------------------------------------------------|
D|---------------------------------------------7-----------9-----10-------|
A|7-----------------------------------10-0--0-----0--0--7-----7-----7--0--|
E|---5--0--5--0--5--0--5--0--5--5--5--------------------------------------|
B|------------------------------------------------------------------------|

G|------------------7-/9-----9--------------------------------------------|
D|------------------------0-----7--0--------------------10h12-------------|
A|7--5--0--5--0--5--------------------7--5--0--12-10-0--------0--8--7--0--|
E|------------------------------------------------------------------------|
B|------------------------------------------------------------------------|

G|---------------------------------------------------------------9--------|
D|9-----------------9--------------7-h9--------10----------12----------0--|
A|---7--0--7--0--7-----7--0--7--0--------0--0-----0--0--8-----8-----8-----|
E|------------------------------------------------------------------------|
B|------------------------------------------------------------------------|

G|------------------------------------------------------------------------|
D|---------------------------------------------------------------5-h7-----|
A|10-0--0--0--0--10h12-0--0--7--0--0--7--0--0--5--0--0--2--0--0-----------|
E|------------------------------------------------------------------------|
B|------------------------------------------------------------------------|

[Pre-Chorus]
G|------------------------------------------------------------------------|
D|------------------------5----h7-----------------------------------------|
A|------------------------------------0-----------------------7-----10----|
E|------------------------------------------------------------------------|
B|6-----------------------------------------------------------------------|

G|------------------------------------------------------------------------|
D|9--9--9--9--9--9--------------------------------------5--5--5--5--5--5--|
A|------------------7--7--7--7--7--7--5--5--5--5--5--5--------------------|
E|------------------------------------------------------------------------|
B|------------------------------------------------------------------------|

G|------------------------------------------------------------------------|
D|------------------------5----h7-----------------------------------------|
A|8-----------------------------------0-----------------------7-----10----|
E|------------------------------------------------------------------------|
B|------------------------------------------------------------------------|

G|------------------------------------------------------------------------|
D|7--7--7--7--7--7--------------------------------------------------------|
A|------------------5--5--5--5--5--5--7--7--7--7--7--7--7--7--7--7\-------|
E|------------------------------------------------------------------------|
B|------------------------------------------------------------------------|

[Chorus] 
G|------------------------------------------------------------------------|
D|------------------------5--5--7--7--------------------------------------|
A|0--0--0--0--0--0--0--0--------------0--0--0--0--0--0--0--0--7--7--10-10-|
E|------------------------------------------------------------------------|
B|------------------------------------------------------------------------|

G|------------------------------------------------------------------------|
D|9--9--9--9--9--9--------------------------------------5--5--5--5--5--5--|
A|------------------7--7--7--7--7--7--5--5--5--5--5--5--------------------|
E|------------------------------------------------------------------------|
B|------------------------------------------------------------------------|

G|------------------------------------------------------------------------|
D|------------------------5----/7-----------------------------------------|
A|0--0--0--0--0--0--0--0--------------0--0--0--0--0--0--0--0--7--7--10-10-|
E|------------------------------------------------------------------------|
B|------------------------------------------------------------------------|

G|------------------------------------------------------------------------|
D|7--7--7--7--7--7--------------------------------------------------------|
A|------------------5--5--5--5--5--5--7--7--7--7--7--7--------------------|
E|------------------------------------------------------------------------|
B|------------------------------------------------------------------------|

[Breakdown]
G|------------------------------------------------------------------------|
D|------------------------------------------------------------------------|
A|7-----7-----7-----------------------7-----7-----------7-----7-----------|
E|5-----5-----5-----5--------------5--5-----5--5--555---5-----5--5--5--5--|
B|------------------------------------------------------------------------|

G|------------------------------------------------------------------------|
D|------------------------------------------------------------------------|
A|7-----7-----7-----------------------7-----7-----------7-----7-----------|
E|5-----5-----5-----5--------------5--5-----5--5--555---5-----5--0--------|
B|------------------------------------------------------------------------|

G|------------------------------------------------------------------------|
D|------------------------------------------------------------------------|
A|8-----8-----8-----------------------8-----8-----8-----------------------|
E|6-----6-----6-----6--666---6--6--6--6-----6-----6-----6--6-----6-----6--|
B|------------------------------------------------------------------------|

G|------------------------------------------------------------------------|
D|5-----5-----5-----------------------5-----5-----5-----------------------|
A|3-----3-----3-----------------------3-----3-----3-----------------------|
E|4-----4-----4-----4-----4-----4-----4-----4-----4-----4--4-----4--------|
B|------------------------------------------------------------------------|

G|------------------------------------------------------------------------|
D|------------------------------------------------------------------------|
A|7-----7-----7-----------------------7-----7-----------7-----7-----------|
E|5-----5-----5-----5--------------5--5-----5--5--555---5-----5--5--5--5--|
B|------------------------------------------------------------------------|

G|------------------------------------------------------------------------|
D|------------------------------------------------------------------------|
A|7-----7-----7-----------------------7-----7-----------7-----7-----------|
E|5-----5-----5-----5--------------5--5-----5--5--555---5-----5--0--------|
B|------------------------------------------------------------------------|

G|------------------------------------------------------------------------|
D|------------------------------------------------------------------------|
A|8-----8-----8-----------------------8-----8-----8-----------------------|
E|6-----6-----6-----6--666---6--6--6--6-----6-----6-----6--6-----6-----6--|
B|------------------------------------------------------------------------|

G|------------------------------------------------------------------------|
D|5-----5-----5-----------------------5-----5-----5-----------------------|
A|3-----3-----3-----------------------3-----3-----3-----------------------|
E|4-----4-----4-----4-----4-----4-----4-----4-----4-----------------------|
B|------------------------------------------------------------------------|

[Interlude pt. 1]
G|------------------------------------------------------------------------|
D|------------------------------------------------------------------------|
A|------------------------------------------------------------3-----------|
E|5--------0-----0--0-----5-----0-----5--------0-----0--5-----------5-----|
B|------------------------------------------------------------------------|

G|------------------------------------------------------------------------|
D|------------------------------------------------------------------------|
A|3--------3--------------3-----------3--------3--------3-----------------|
E|------5--------5--5-----------5-----------5--------5--------5-----5-----|
B|------------------------------------------------------------------------|

G|------------------------------------------------------------------------|
D|------------------------------------------------------------------------|
A|3-----------------3-----------------3-----------------3-----3-----------|
E|------------------------------------------------------------------------|
B|------1--1-----1--------1-----1--------1--1--1-----1--------------1-----|

G|------------------------------------------------------------------------|
D|------------------------------------------------------------------------|
A|3--------3--------3-----3-----3-----3--------3--------1-----1-----1-----|
E|------------------------------------------------------------------------|
B|------1--------1--------------------------1--------1--------------------|

G|------------------------------------------------------------------------|
D|------------------------------------------------------------------------|
A|------------------------------------------------------------------------|
E|5-----0--5-----0--0-----5-----0-----5-----0--5-----0--0-----0-----0-----|
B|------------------------------------------------------------------------|

G|------------------------------------------------------------------------|
D|------------------------------------------------------------------------|
A|------------------------7-----------7--------7--------7-----7-----7-----|
E|5-----0--5-----0--5-----------5-----------5--------5--5-----5-----5-----|
B|------------------------------------------------------------------------|

G|------------------------------------------------------------------------|
D|------------------------------------------------------------------------|
A|3--------3--------3-----------------3--------3--------3-----------------|
E|------------------------------------------------------------------------|
B|------1--------1--------1-----1-----------1--------1--------1-----1-----|

G|------------------------------------------------------------------------|
D|------------------------------------------------------------------------|
A|3--------3--------3-----------------------------------------------------|
E|------------------------------------6-----------------------------------|
B|------1--------1--------1-----1-----------------------------------------|

[Interlude pt. 2]
G|------------------------------------------------------------------------|
D|------------------------------------------------------------------------|
A|------------------------------------------------------------------------|
E|5-----------------------------------------------------------------------|
B|------------------------------------------------------------------------|

G|------------------------------------------------------------------------|
D|------------------------------------------------------------------------|
A|------------------------------------------------------------------------|
E|------------------------------------------------------------------2/----|
B|1-----------------------------------3-----------------------------------|

G|------------------------------------------------------------------------|
D|------------------------------------------------------------------------|
A|------------------------------------------------------------------------|
E|5-----------------------------------------------------------------------|
B|------------------------------------0-----------------------------------|

G|------------------------------------------------------------------------|
D|------------------------------------------------------------------------|
A|------------------------------------------------------------------------|
E|------------------------------------------------------------------------|
B|1-----------------------------------3-----------------------------------|

[Tapping pt. 1] x 2
G|------------------------------------------------------------------------|
D|---7-----7--------5-h7--------7--------7-----7--------5-h7--------7-----|
A|------12-------12-------12-------12-------12-------12-------12-------12-|
E|5-----------5--------------5--------5-----------5--------------5--------|
B|------------------------------------------------------------------------|

G|------------------------------------------------------------------------|
D|---9-----9--------7-h9--------9--------9-----9--------7-h9--------9-----|
A|------14-------14-------14-------14-------14-------14-------14-------14-|
E|7-----------7--------------7--------7-----------7--------------7--------|
B|------------------------------------------------------------------------|

G|------------------------------------------------------------------------|
D|------------------------------------------------------------------------|
A|---7-----7--------5-h7--------7--------7-----7--------5-h7--------7-----|
E|------12-------12-------12-------12-------12-------12-------12-------12-|
B|5-----------5--------------5--------5-----------5--------------5--------|

G|------------------------------------------------------------------------|
D|---------------------------------------10----9-----10----9-----10----9--|
A|---7-----7--------5-h7--------7-----12----14----12----14----12----14----|
E|------12-------12-------12-------12-------------------------------------|
B|5-----------5--------------5--------------------------------------------|

[Interlude pt. 3]
G|------------------------------------------------------------------------|
D|------------------------------------------------------------------------|
A|------------------------------------------------------------------------|
E|5--------5--------5--------5--------5--------5--------5--------5--------|
B|------------------------------------------------------------------------|

G|------------------------------------------------------------------------|
D|------------------------------------------------------------------------|
A|------------------------------------------------------------------------|
E|7--------7--------7--------7--------7--------7--------7--------7\-------|
B|------------------------------------------------------------------------|

G|------------------------------------------------------------------------|
D|------------------------------------------------------------------------|
A|------------------------------------------------------------------------|
E|------------------------------------------------------------------------|
B|1--1--1--1--1--1--1--1--1--1--1--1--1--1--1--1--1--1--1--1--1--1--1--1--|

G|------------------------------------------------------------------------|
D|------------------------------------------------------------------------|
A|------------------------------------------------------------------------|
E|---------------------------------------------------------------2/-------|
B|3--3--3--3--3--3--3--3--3--3--3--3--3--3--3--3--3--3--3--3--3-----------|

G|------------------------------------------------------------------------|
D|------------------------------------------------------------------------|
A|------------------------------------------------------------------------|
E|5--5--5--5--5--5--5--5--5--5--5--5--5--5--5--5--5--5--5--5--5--5--5--5--|
B|------------------------------------------------------------------------|

G|------------------------------------------------------------------------|
D|------------------------------------------------------------------------|
A|------------------------------------------------------------------------|
E|------------------------------------------------------------------------|
B|0--0--0--0--0--0--0--0--0--0--0--0--0--0--0--0--0--0--0--0--0--0--0--0--|

G|------------------------------------------------------------------------|
D|------------------------------------------------------------------------|
A|------------------------------------------------------------------------|
E|------------------------------------------------------------------------|
B|1--1--1--1--1--1--1--1--1--1--1--1--1--1--1--1--1--1--1--1--1--1--1--1--|

G|------------------------------------------------------------------------|
D|------------------------------------------------------------------------|
A|------------------------------------------------------------------------|
E|------------------------------------------------------------------------|
B|3--3--3--3--3--3--3--3--3--3--3--3--3--3--3--3--3--3--3-----3-----3-----|

[Outro]
G|------------------------------------------------------------------------|
D|2-----------------------2-----------2-----------------------2-----------|
A|------------------------------------------------------------------------|
E|---------1-----1--1-----------1--------------1-----1--1-----------1-----|
B|------------------------------------------------------------------------|

G|------------------------------------------------------------------------|
D|------------------------------------------------------------------------|
A|2-----------------------2-----------2-----------------------------------|
E|------------------------------------------------------------------------|
B|---------1-----1--1-----------1--------------1-----1--1-----1-----1-----|

G|------------------------------------------------------------------------|
D|------------------------------------------------------------------------|
A|5--------5--------------5-----------5-----------------------------------|
E|------------------------------------------------------------------------|
B|------3--------3--3-----------3--------------3-----3--3-----3-----3-----|

G|------------------------------------------------------------------------|
D|------------------------------------------------------------------------|
A|5--------5--------5-----------------------------------------------------|
E|------------------------------------6--------6-----6--6-----6-----6-----|
B|------3--------3--------3-----3-----------------------------------------|

G|------------------------------------------------------------------------|
D|------------------------------------------------------------------------|
A|5-----------------------5-----------5-----------------------------------|
E|---------6-----6--6-----------6--------------6-----6--6-----6-----6-----|
B|------------------------------------------------------------------------|

G|------------------------------------------------------------------------|
D|------------------------------------------------------------------------|
A|7-----------------------7-----------7-----------------------------------|
E|---------5-----5--5-----------5--------------5-----5--5-----5-----5-----|
B|------------------------------------------------------------------------|

G|------------------------------------------------------------------------|
D|------------------------------------------------------------------------|
A|5-----------------------5-----------5-----------------------5-----------|
E|---------3-----3--3-----------3--------------3-----3--3-----------3-----|
B|------------------------------------------------------------------------|

G|------------------------------------------------------------------------|
D|------------------------------------------------------------------------|
A|------------------------------------------------------------------------|
E|6--------6-----6--6-----6-----6-----6--------6-----6--6-----6-----6-----|
B|------------------------------------------------------------------------|

G|------------------------------------------------------------------------|
D|------------------------------------------------------------------------|
A|------------------------------------------------------------------------|
E|5-----------------------------------------------------5-----6-----6-----|
B|------------------------------------------------------------------------|

G|------------------------------------------------------------------------|
D|------------------------------------------------------------------------|
A|7-----------------------------------------------------------------------|
E|5-----------------------------------------------------5-----6-----6-----|
B|------------------------------------------------------------------------|

G|------------------------------------------------------------------------|
D|------------------------------------------------------------------------|
A|7-----------------------------------------------------------------------|
E|5-----------------------------------------------------5-----6-----6-----|
B|------------------------------------------------------------------------|

G|------------------------------------------------------------------------|
D|------------------------------------------------------------------------|
A|7-----------------------------------------------------------------------|
E|5-----------------------------------------------------------------------|
B|------------------------------------------------------------------------|



************************************

| h  Hammer-on
| p  Pull-off
| /  Slide up
| \  Slide down

************************************

            
            
Suggest correction
Creating personal tab
Creating personal tab
You can edit any tab online and save it as your Personal.

You can edit, replace or remove any tab part or add personal notes – all changes will be seen only by you.

Personal tabs can be accessed anytime from any device, even offline.
Learn more »
Give kudos to tab author, rate the tab!
1 2 3 4 5
comments
print report bad tab
1 comment total.
0 reply
Danzeeman 31 May 11, 2017 12:12 AM

Playthrough video of Lacuna here https://www.youtube.com/watch?v=-Zij2t8Z8mI

guest
You may want to rate the tab now too:
select rating
Wanna post a correction for this tab? Suggest correction