Oops, an error
Loading. Please wait.

Work Song tab

version 1
version 1

Whole song

Interactive

4,726 views 6 this week
no commentswrite comment
1 2 3 4 5
2 more votes to show rating
add to favorites
×
Save as Personal and add changes to this tab that will be seen only by you. Learn more ›
×
You can save this tab as Personal to edit and correct it or add notes. All changes will be seen only by you. Learn more »
launch autoscroll
font size
0
reset
how to read this tab
guitar tuner
edit
Autoscroll
slow
fast
+/-
esc
set tempo
stop
    _______________________________
   / Fallulah                     /
  / Work Song                    /
 / The Black Cat Neighbourhood  /
/______________________________/

This song is played by an Ukulele in standard tuning (G C E A).
If you don't have an Ukulele, buy one! You can also simulate one with your
guitar by using capo on the 5th fret. This lifts the four high strings from
DGBE to GCEA. It won't be entirely the same as the lowest Ukulele-string, G,
is tuned one octave higher, ringing the note G right below the high A.


 Intro:
    C        G6          D             Am              2x
||--3-----3-----2-----------|--------------------------||
||o-0--0--0--0--0--0--0--2--|-2--2--2--0-----0--0--0--o||
||o-0--0--0--2--2--2--0--2--|-2--2--2--0-----0--0--0--o||
||--0--0--0--0--0--0--0--2--|-2--2--2--2-----2--2--0---||



 Verse: Play the figure of the intro 8 times.


 Chorus:
    A7                        F(add2)                  3x
||--------------------------|--------------------------||
||o-0--0--0--0--0--0--0--0--|-1--1--1--1--1--1--1--1--o||
||o-1--1--1--1--1--1--1--1--|-0--0--0--0--0--0--0--0--o||
||--2--0--2--0--2--0--2--0--|-2--0--2--0--2--0--2--0---||

  A7                        D(add4)
|-------------------------|-------------------------|
|-0--0--0--0--0--0--0--0--|-2--2--2-----2--2--2-----|
|-1--1--1--1--1--1--1--1--|-2--2--2-----2--2--2-----|
|-2--0--2--0--2--0--2--0--|-0--0--2-----0--0--2-----|

  D(add4)                   A
|-------------------------|-0-----------------------|
|-2--2--2-----2-----2--2--|-0-----------------------|
|-2--2--2-----2-----2--2--|-1-----------------------|
|-0--0--2-----2-----0--0--|-2-----------------------|



 Interlude:
  A     Am    G6            C
|-0--0--------2-----------|-------------------------|
|-0--0--0--0--0--0--0--0--|-0--0--0--0--0--0--0--0--|
|-1--1--0--0--2--2--0--0--|-0--0--0--0--0--0--0--0--|
|-2--2--2--0--0--0--0--0--|-5--0--2--0--5--0--2--0--|

  A     Am    G6            break
|-0--0--------2-----------|-------------------------|
|-0--0--0--0--0--0--0--0--|-------------------------|
|-1--1--0--0--2--2--0--0--|-------------------------|
|-2--2--2--0--0--0--0--0--|-------------------------|



 Verse

 Chorus


 Outro:
    A     Am    G6            C                        4x A
||--0--0--------2-----------|--------------------------||-0^-----:
||o-0--0--0--0--0--0--0--0--|-0--0--0--0--0--0--0--0--o||-0^-----:
||o-1--1--0--0--2--2--0--0--|-0--0--0--0--0--0--0--0--o||-1^-----:
||--2--2--2--0--0--0--0--0--|-5--0--2--0--5--0--2--0---||-2^-----:




 LYRICS
**********
You can play the lottery
I can use my hands for praying
I'm not sure what I believe
But we've got a lot of paying to do
Working in this tired row
Only thing we've got in common
Buy me out so I can go
I believe I'm made for something

Every day's a battle to get up
Every day I put on a smile
And everyday it wears off
Every day I feel like telling the same people to shut up
Oh, it's so tough to love
With no love

I feel so misunderstood
I guess that it's my curse in life
Hope that I can do some good
With all the tears I've never cried
Could you hold my heavy heart?
Could you make it better soon?
Promise not to let it drop
I don't think I'll get a new



------------------------------------------------------------------------------
 2nd /May /10
 Just mail me at Maitinin@gmail.com with questions, comments and corrections!
------------------------------------------------------------------------------


 " Maitinin writing here - the author of this tab.

   The past 11 years, I have generated 10,318,000 views and 815 top-rated tabs for this site.
   If you want to support an eager contributor like me, check out my own site:


   _____  http://www.PlayLikeTheGreats.com  _____


   Here I will continue to upload and improve my transcriptions.

   Best regards,
   Maitinin "

            
            
Suggest correction
Creating personal tab
Creating personal tab
You can edit any tab online and save it as your Personal.

You can edit, replace or remove any tab part or add personal notes – all changes will be seen only by you.

Personal tabs can be accessed anytime from any device, even offline.
Learn more »
Give kudos to tab author, rate the tab!
1 2 3 4 5
comments
print report bad tab
guest
You may want to rate the tab now too:
select rating
Wanna post a correction for this tab? Suggest correction