Oops, an error
Loading. Please wait.

The Question Tab

version 2
version 2

Whole song

935 views 1 this week
no commentswrite comment
1 2 3 4 5
please rate
add to favorites
launch autoscroll
font size
0
reset
how to read this tab
guitar tuner
Autoscroll
slow
fast
+/-
esc
set tempo
stop
Help us to improve Ultimate-Guitar.com Take our survey!
×
Author
TheLawTB 103
-------------------------------------------------------------------------------
                             The Question - Familiar 48
-------------------------------------------------------------------------------

Tabbed by:TheLawTB
Email:icuending@yahoo.com
This is my first tab, theres some parts missing but its easy to figure out!

Tuning:EADGBe
    
  VERSE 1 x3
e|-----------------------------44---44---------------------------------------|
B|-----99---99-----77---77-----55---55-----44---4----------------------------|
G|-----99---99-----88---88-----66---66-----44---4----------------------------|
D|-----99---99-----99---99-----66---66-----44---4----------------------------|
A|-7-7-77-7-77-6-6-66-6-66-4-4-44-4-44-2-2-22-2-2----------------------------|
E|---------------------------------------------------------------------------|
  
   VERSE 1 cont'd
e|-5--555-5-5-5-5------------------------77-77777-----77---77----------------|
B|-5--555-5-5-5-5------------------------77-99999-----77---77----------------|
G|-2--222-2-2-2-2-1--111h2-2-2p1---------88-99999-----88---88----------------|
D|-2--222h4-4-4p2-2--222-2-2-2-2---------99-99999-----99---99----------------|
A|-0--000-0-0-0-0-2--222-2-2-2-2---------99-77777-----99---99----------------|
E|----------------0--000-0-0-0-0-1\7-7-7-77-77777-7-7-77-7-77----------------|
 
   (And she falls down . . .)
e|------55---55-----77---77--------77-77777-----77---7-----------------------|
B|------55---55-----99---99--------77-99999-----99---9-----------------------|
G|------66---66-----99---99-x3-----88-99999-----99---9-----------------------|
D|------77---77-----99---99--------99-99999-----99---9-----------------------|
A|------77---77-7-7-77-7-77--------99-77777-----77---7-----------------------|
E|--5-5-55-5-55----------------7-7-77-77777-7-7-77-7-7-----------------------|
   
   (When the clouds come . . .)
e|-7-777-777-6-666-666-4-444-444-2-222---22----------------------------------|
B|-9-999-999-7-777-777-5-555-555-4-444---44----------------------------------|
G|-9-999-999-8-888-888-6-666-666-4-444---44----------------------------------|
D|-9-999-999-9-999-999-6-666-666-4-444---44----------------------------------|
A|-7-777-777-6-666-666-4-444-444-2-222-2-22----------------------------------|
E|---------------------------------------------------------------------------|

e|-5--555-5-5-5-5------------------------77-77777-----77---77----------------|
B|-5--555-5-5-5-5------------------------77-99999-----77---77----------------|
G|-2--222-2-2-2-2-1--111h2-2-2p1---------88-99999-----88---88----------------|
D|-2--222h4-4-4p2-2--222-2-2-2-2---------99-99999-----99---99----------------|
A|-0--000-0-0-0-0-2--222-2-2-2-2---------99-77777-----99---99----------------|
E|----------------0--000-0-0-0-0-1\7-7-7-77-77777-7-7-77-7-77----------------|

  VERSE 2 
e|-----------------------------44---44---------------------------------------|
B|-----99---99-----77---77-----55---55-----44---4----------------------------|
G|-----99---99-----88---88-----66---66-----44---4----------------------------|
D|-----99---99-----99---99-----66---66-----44---4----------------------------|
A|-7-7-77-7-77-6-6-66-6-66-4-4-44-4-44-2-2-22-2-2----------------------------|
E|---------------------------------------------------------------------------|
  VERSE 2 cont'd
e|-5--555-5-5-5-5------------------------77-77777-----77---77----------------|
B|-5--555-5-5-5-5------------------------77-99999-----77---77----------------|
G|-2--222-2-2-2-2-1--111h2-2-2p1---------88-99999-----88---88----------------|
D|-2--222h4-4-4p2-2--222-2-2-2-2---------99-99999-----99---99----------------|
A|-0--000-0-0-0-0-2--222-2-2-2-2---------99-77777-----99---99----------------|
E|----------------0--000-0-0-0-0-1\7-7-7-77-77777-7-7-77-7-77----------------|

  (And she falls down . . .)
e|------55---55-----77---77--------77-77777-----77---7-----------------------|
B|------55---55-----99---99--------77-99999-----99---9-----------------------|
G|------66---66-----99---99-x3-----88-99999-----99---9-----------------------|
D|------77---77-----99---99--------99-99999-----99---9-----------------------|
A|------77---77-7-7-77-7-77--------99-77777-----77---7-----------------------|
E|--5-5-55-5-55----------------7-7-77-77777-7-7-77-7-7-----------------------|

  (When the clouds come. . .) x2  
e|-7-777-777-6-666-666-4-444-444-2-222---22----------------------------------|
B|-9-999-999-7-777-777-5-555-555-4-444---44----------------------------------|
G|-9-999-999-8-888-888-6-666-666-4-444---44----------------------------------|
D|-9-999-999-9-999-999-6-666-666-4-444---44----------------------------------|
A|-7-777-777-6-666-666-4-444-444-2-222-2-22----------------------------------|
E|---------------------------------------------------------------------------|

e|-5--555-5-5-5-5------------------------77-77777-----77---77----------------|
B|-5--555-5-5-5-5------------------------77-99999-----77---77----------------|
G|-2--222-2-2-2-2-1--111h2-2-2p1---------88-99999-----88---88----------------|
D|-2--222h4-4-4p2-2--222-2-2-2-2---------99-99999-----99---99----------------|
A|-0--000-0-0-0-0-2--222-2-2-2-2---------99-77777-----99---99----------------|
E|----------------0--000-0-0-0-0-1\7-7-7-77-77777-7-7-77-7-77----------------|

   Thats pretty much all of it the rest is just repeats

  CHORDS:
  Ebar    E6/b     C#m    B    Bbar    B/E    Abar    Asus     E
e|-7-------6--------4-----2-----7--------------5-------5---------------------|
B|-7-------7--------5-----4-----7-------9------5-------5---------------------|
G|-9-------8--------6-----4-----8-------9------6-------2-------1-------------|
D|-9-------9--------6-----4-----9-------9------7-------2-------2-------------|
A|-7-------6--------4-----2-----9-------7------7-------0-------2-------------|
E|------------------------------7-------7------5---------------0-------------|


| /  slide up
| \  slide down
| h  hammer-on
| p  pull-off

===============================================================================
Suggest correction
What's this?
You can suggest a correction to this tab. Community and Mods will review your correction and vote to approve or reject it.
comments
We did not receive enough feedback on this tab! Please rate:
print report bad tab
1 2 3 4 5
guest
You may want to rate the tab now too:
select rating
Please do not post tabs as comments. Select "correction" instead!