Oops, an error
Loading. Please wait.

Business Up Front Party In The Back Bass Tab

1,479 views 6 this week
no commentswrite comment
1 2 3 4 5
please rate
add to favorites
launch autoscroll
font size
0
reset
guitar tuner
Autoscroll
slow
fast
+/-
esc
set tempo
stop
Help us to improve Ultimate-Guitar.com Take our survey!
×
Author
Tuning
D A D G B E
THIS IS Business Up Front/Party In the Back (Diamond Edition) - EP... THEY CHANGED 
THE NAME ON ME WHEN THEY ACCEPTED IT!!!


-------------------------------------------------------------------------------
	I Love You to Death - Family Force 5
-------------------------------------------------------------------------------

Tuning: Standard or Drop D if you want to stay tuned the same for the 
        whole album!

Intro
G|---------------------|
D|---------------------|
A|--333333-----333333--|
E|---------------------|

G|-----------|
D|---43311---| x7
A|--------3--|
E|-----------|

Verse
G|---------------------------|
D|---------------------------| x4
A|--3--3-3----3--3-3--55566--|
E|---------------------------|

Pre-Chorus
G|---------------------------|
D|---------------------------| x2
A|--3--3-3----3--3-3--55566--|
E|---------------------------|

Chorus
G|-----------|
D|---43311---| x7
A|--------3--|
E|-----------|

Pre-Verse
G|-------------------------|
D|-------------------------|
A|--33333333-----33333333--|
E|-------------------------|

Verse
G|---------------------------|
D|---------------------------| x4
A|--3--3-3----3--3-3--55566--|
E|---------------------------|

G|----------|
D|----------|
A|--3--3-3--|
E|----------|

G|---------------------------|
D|---------------------------| x4
A|--3--3-3----3--3-3--55566--|
E|---------------------------|

Pre-Chorus
G|---------------------------|
D|---------------------------| x2
A|--3--3-3----3--3-3--55566--|
E|---------------------------|

Chorus
G|-----------|
D|---43311---| x7
A|--------3--|
E|-----------|

Pre-Verse
G|-------------------------|
D|-------------------------|
A|--33333333-----33333333--|
E|-------------------------|

G|----------------------------|
D|----------------------------|
A|--333333333333333333333333--|
E|----------------------------|

Chorus
G|-----------|
D|---43311---| Guitar does a couple, then repeat till end
A|--------3--|
E|-----------|


| /  slide up
| \  slide down
| h  hammer-on
| p  pull-off
| ~  let note ring
| +  harmonic
| x  Mute note
===============================================================================


-------------------------------------------------------------------------------
		Face Down - Family Force 5	 
-------------------------------------------------------------------------------

Tuning: Drop D

Intro
G|------------------------------------|
D|------------------------------------|
A|--3333333300000000------------------|
D|------------------3333333311111111--|

Verse ~Bass Comes In Right After Drums~
G|---------------------------------------------------|
D|---------------------------------------------------|
A|--33---33-33---------------------------------------|
D|--------------33---33-33--11---11-11--33----33-33--|

Pre-Chorus
G|------------------|
D|--3~----1~--------| x2
A|--------------3~--|
D|------------------|

Chorus
G|--------------------------------------------------|
D|--------------------------------------------------| x2
A|--33---33-33--00---00-00--------------------------|
D|--------------------------33---33-33--11---11-11--|

G|------------------------------------|
D|------------------------------------|
A|--3333333300000000------------------|
D|------------------3333333311111111--|

Verse
G|--------------------------------------------------|
D|--------------------------------------------------|
A|--33---33-33--00---00-00--------------------------|
D|--------------------------33---33-33--11---11-11--|

G|---------------------------------------------|
D|---------------------------------------------|
A|--33-33--00---00-00--------------------------|
D|---------------------33---33-33--11---11-11--|

Pre-Chorus
G|------------------|
D|--3~----1~--------| x2
A|--------------3~--|
D|------------------|

Chorus
G|--------------------------------------------------|
D|--------------------------------------------------| x2
A|--33---33-33--00---00-00--------------------------|
D|--------------------------33---33-33--11---11-11--|

Bridge
G|------------------------------------|
D|------------------------------------| x2
A|--3333333300000000------------------|
D|------------------3333333311111111--|

Pre-Chorus
G|------------------|
D|--3~----1~--------| x2
A|--------------3~--|
D|------------------|

Outro
G|------------------------------------|
D|------------------------------------| x4
A|--3333333300000000------------------|
D|------------------3333333311111111--|



| /  slide up
| \  slide down
| h  hammer-on
| p  pull-off
| ~  let note ring
| +  harmonic
| x  Mute note
===============================================================================

-------------------------------------------------------------------------------
			 Never Let Me Go - Family Force 5
-------------------------------------------------------------------------------

Tuning: Drop D

Intro x3
G|-----------------------|    |-----------|
D|---------------6-------| x2 |--------6--|
A|-----------------------|    |-----------|
D|--3p0-3h5-------0-3h5--|    |--5p3h5----|

Verse 
G|--------------------|
D|-----------------6--| x6
A|--------------------|
D|--3p0-3h5--5p3h5----|

Pre-Chorus 
G|--------------------|
D|-----------------6--| x3
A|--------------------|
D|--3p0-3h5--5p3h5----|

Chorus
G|---------------------------------------------------------------|
D|---------------------------------------------------------------| x2
A|---------------------------------------------------------------|
D|--3-0-3-5-5-6--3-0-3-5-5-6---3-0-3-5-5-6---3-0-3/121212121211--|

Post-Chorus
G|----------------------------------------------------------|
D|----------------------------------------------------------|
A|----------------------------------------------------------|
D|--8-8-7-8-10--7--8-8-7-8-10--7--8-8-7-8-10--7--8-8-7-8-7--|

Verse
G|----------|
D|----------| x6
A|----------|
D|--3p03h5--|

Verse 
G|--------------------|
D|-----------------6--| x3
A|--------------------|
D|--3p0-3h5--5p3h5----|

Pre-Chorus 
G|--------------------|
D|-----------------6--| x3
A|--------------------|
D|--3p0-3h5--5p3h5----|

Chorus
G|---------------------------------------------------------------|
D|---------------------------------------------------------------| x2
A|---------------------------------------------------------------|
D|--3-0-3-5-5-6--3-0-3-5-5-6---3-0-3-5-5-6---3-0-3/121212121211--|

Bridge
G|---------------------------|
D|---------------------------|
A|---------------------------|
D|--8-8-8-8-8-8-8-8-8-8-8-8--|

G|---------------------------------------------------------|
D|---------------------------------------------------------| x2
A|---------------------------------------------------------|
D|--8-8-8-8---------8-8-8-8--------8-8-8-8--------8-8-8-8--|

G|---------------------------|
D|---------------------------|
A|---------------------------|
D|--8-8-8-8-8-8-8-8-8-8-8-8--|

Chorus
G|---------------------------------------------------------------|
D|---------------------------------------------------------------| x4
A|---------------------------------------------------------------|
D|--3-0-3-5-5-6--3-0-3-5-5-6---3-0-3-5-5-6---3-0-3/121212121211--|



| /  slide up
| \  slide down
| h  hammer-on
| p  pull-off
| ~  let note ring
| +  harmonic
| x  Mute note
===============================================================================

Suggest correction
What's this?
You can suggest a correction to this tab. Community and Mods will review your correction and vote to approve or reject it.
comments
We did not receive enough feedback on this tab! Please rate:
print report bad tab
1 2 3 4 5
guest
You may want to rate the tab now too:
select rating
Please do not post tabs as comments. Select "correction" instead!