Oops, an error
Loading. Please wait.

Cadillac Phunque Tab

3,386 views 1 this week
no commentswrite comment
1 2 3 4 5
x 6
add to favorites
launch autoscroll
font size
0
reset
how to read this tab
guitar tuner
Autoscroll
slow
fast
+/-
esc
set tempo
stop
Help us to improve Ultimate-Guitar.com Take our survey!
×
Author
Corrected version - use this one

Family Force 5

Cadillac Phunque

Not perfect, but you’ll get the other little
pieces as you play it.  Another krunkin’
jam by FF5!!

Intro and main riff throughout song:
E|---------------------------------------------|
B|---------------------------------------------|
G|---------------------------------------------|
D|-0-10-9-0-10—--10-9-0-10—-0-10-0-3-5—-335----|
A|-0-10-9-0-10—--10-9-0-10--0-10-0-3-5—-335----|
D|-0-10-9-0-10—--10-9-0-10--0-10-0-3-5—-335----|


Verse – Guitar 1
Best to bar this and avoid noise
Scratch through it on the D/G/B strings
E|---10-------10--------------------------|
B|---10-------10--------------------------|
G|---1012-----1011------------------------|
D|-- 1012—----1012------------------------|
A|---10-------10--------------------------|
D|----------------------------------------|


Other little riff – Also best to bar and avoid noise
Scratch through it on the D/G/B strings
E|----5 xx5 x5 x5 xxxx5 xx5 x5 x5 -5----------|
B|----57xx57x57x57xxxx57xx57x57x57-57---------|
G|----57xx57x57x57xxxx57xx57x57x57-578h7p-----|
D|----57xx57x57x57xxxx57xx57x57x57-57---------|
A|----5 xx5 x5 x5 xxxx5 xx5 x5 x5 -5----------|
D|--------------------------------------------|


Another little transitional riff –
E|-------------------------------|
B|-------------------------------|
G|-------------------------------|
D|----5---555533-----------------|
A|----5---555533-----------------|
D|----5---555533-----------------|
Suggest correction
comments
print report bad tab
guest
You may want to rate the tab now too:
select rating
Wanna post a correction for this tab? Suggest correction