Oops, an error
Loading. Please wait.

Mamacita Tab

1,928 views 1 this week
no commentswrite comment
1 2 3 4 5
excellent!
x 6
add to favorites
launch autoscroll
font size
0
reset
how to read this tab
guitar tuner
Autoscroll
slow
fast
+/-
esc
set tempo
stop
Help us to improve Ultimate-Guitar.com Take our survey!
×
Author
Difficulty
novice
A great catchy song from Family Force 5's album III
I tabbed this by ear so it may not be 100% perfect but I think it sounds pretty close

Guitar 1 (Acoustic)
Intro
(0.00 – 0.08)
e----------0----------------------------------0-----------------1----|
B----1--1-----1--------0--3---3------------1-----1-----------1-------|
G----------------0--1-------------------2-----------2----------------|
D---------------------------------------------------------3----------|
A--3~-------------------------------0~-------------------------------|
E------------------------------------------------------1~------------|

Verse 1
(0.08 - 0.24)
Notes in brackets can be played by another guitar
e----0--0--0---0-------------------0--0--0---0----1--1--1--1-----|
B----1--1--1---1----0--0--0---0----1--1--1---1----1--1--1--1-----|
G----0--0--0(0)-(1)-1--1--1(1)-(2)-2--2--2(2)-----2--2--2--2-----|
D----2--2--2---2----2--2--2---2----2--2--2---2(3)-3--3--3--3-----|
A--3~---------------2--2--2---2----------------------------------|
E----------------------------------------------------------------|
(x2)

Pre-Chorus 1
(0.24 - 0.39)
e------1-----1-----1-----1-----0-----0-----0-----0-------|
B------3-----3-----3-----3-----1-----1-----1-----1-------|
G------2-----2-----2-----2-----2-----2-----2-----2-------|
D------------------------------2-----2-----2-----2-------|
A--------------------------------------------------------|
E--------------------------------------------------------|
(x3)

e------1-----1-----1-----1--1-------------------------|
B------1-----1-----1-----1--1--3--3----3----3--3--3---|
G------2-----2-----2-----2--2--0--0----0----0--0--0---|
D------3-----3-----3-----3--3--0--0----0----0--0--0---|
A------------------------------2--2----2----2--2--2---|
E------------------------------3--3----3----3--3--3---|

Chorus 1
(0.39 - 0.54)
e----0--0--0---0-------------------0--0--0---0----1--1--1--1-----|
B----1--1--1---1----0--0--0---0----1--1--1---1----1--1--1--1-----|
G----0--0--0(0)-(1)-1--1--1(1)-(2)-2--2--2(2)-----2--2--2--2-----|
D----2--2--2---2----2--2--2---2----2--2--2---2(3)-3--3--3--3-----|
A--3~---------------2--2--2---2----------------------------------|
E----------------------------------------------------------------|

e----0--0--0---0-------------------0--0--0---0----1--1-----------|
B----1--1--1---1----0--0--0---0----1--1--1---1----1--1-----------|
G----0--0--0(0)-(1)-1--1--1(1)-(2)-2--2--2(2)-----2--2-----------|
D----2--2--2---2----2--2--2---2----2--2--2---2(3)-3--3-----------|
A--3~---------------2--2--2---2----------------------------------|
E----------------------------------------------------------------|

Verse 2
(0.54 - 1.10)
e----------0----------------------------------0-----------------1----|
B----1--1-----1--------0--3---3------------1-----1-----------1-------|
G----------------0--1-------------------2-----------2----------------|
D---------------------------------------------------------3----------|
A--3~-------------------------------0~-------------------------------|
E------------------------------------------------------1~------------|

e----0--0--0--0-------------------0--0--0---0----1--1--1--1-----|
B----1--1--1--1-------------------1--1--1---1----1--1--1--1-----|
G----0--0--0--0-------------------2--2--2(2)-----2--2--2--2-----|
D----2--2--2--2-------------------2--2--2---2(3)-3--3--3--3-----|
A--3~-----------------------------------------------------------|
E---------------------------------------------------------------|

Pre-Chorus 2
(1.10 - 1.25)
e------1-----1-----1-----1-----0-----0-----0-----0-------|
B------3-----3-----3-----3-----1-----1-----1-----1-------|
G------2-----2-----2-----2-----2-----2-----2-----2-------|
D------------------------------2-----2-----2-----2-------|
A--------------------------------------------------------|
E--------------------------------------------------------|
(x3)

e------1-----1-----1-----1--1------------------------|
B------1-----1-----1-----1--1----3-----3----3--3-----|
G------2-----2-----2-----2--2----0-----0----0--0-----|
D------3-----3-----3-----3--3----0-----0----0--0-----|
A--------------------------------2-----2----2--2-----|
E--------------------------------3-----3----3--3-----|

Chorus 2
(1.25 - 1.56)
e---0---0---0---0-------------------0---0---0---0---1---1---1---1----|
B---1---1---1---1---0---0---0---0---1---1---1---1---1---1---1---1----|
G---0---0---0---0---1---1---1---1---2---2---2---2---2---2---2---2----|
D---2---2---2---2---2---2---2---2---2---2---2---2---3---3---3---3----|
A---3---3---3---3---2---2---2---2------------------------------------|
E--------------------------------------------------------------------|
(x3)

e---0---0---0---0-------------------0---0---0---0--------------------|
B---1---1---1---1---0---0---0---0---1---1---1---1--------------------|
G---0---0---0---0---1---1---1---1---2---2---2---2--------------------|
D---2---2---2---2---2---2---2---2---2---2---2---2--------------------|
A---3---3---3---3---2---2---2---2------------------------------------|
E--------------------------------------------------------------------|

Bridge
(1.56 - 2.27)
e-----0h1p0--0--0-0--0-0---0-0-0-------|
B--------------------------------------|
G--------------------------------------|
D--------------------------------------|
A--------------------------------------|
E--------------------------------------|
(x4)

e----------------0-0-0-0---0-0-0--3--3-1--1-1-1--0--0-0---0-0--0-0-0---|
B---------2--2-3----------------------------------------3--------------|
G----2-----------------------------------------------------------------|
D----------------------------------------------------------------------|
A----------------------------------------------------------------------|
E----------------------------------------------------------------------|
(x4)

e----------0----------------------------------0-----------------1----|
B----1--1-----1--------0--3---3------------1-----1-----------1-------|
G----------------0--1-------------------2-----------2----------------|
D---------------------------------------------------------3----------|
A--3~-------------------------------0~-------------------------------|
E------------------------------------------------------1~------------|

Chorus 1
(2.27 - 2.58)
e---0---0---0---0-------------------0---0---0---0---1---1---1---1----|
B---1---1---1---1---0---0---0---0---1---1---1---1---1---1---1---1----|
G---0---0---0---0---1---1---1---1---2---2---2---2---2---2---2---2----|
D---2---2---2---2---2---2---2---2---2---2---2---2---3---3---3---3----|
A---3---3---3---3---2---2---2---2------------------------------------|
E--------------------------------------------------------------------|
(x4)

Outro
(2.58 - 3.10)
e----------------------------------------------------1--------|
B-------------------------------------------------1-----1~----|
G-------------------------------------------------------------|
D----------------------------------------------3--------------|
A-------------------------------------------------------3~----|
E-------------------------------------------1~----------------|

Thanks for checking out the tab!
If you have any corrections or comments then feel free to let me know :)
Enjoy!
Suggest correction
What's this?
You can suggest a correction to this tab. Community and Mods will review your correction and vote to approve or reject it.
comments
print report bad tab
guest
You may want to rate the tab now too:
select rating
Please do not post tabs as comments. Select "correction" instead!