Oops, an error
Loading. Please wait.

Party Foul Tab

version 1
version 1

Whole song

912 views 3 this week
no commentswrite comment
1 2 3 4 5
3 more votes to show rating
add to favorites
launch autoscroll
font size
0
reset
how to read this tab
guitar tuner
Autoscroll
slow
fast
+/-
esc
set tempo
stop
Help us to improve Ultimate-Guitar.com Take our survey!
×
Ok. I tabbed the intro to this song and now this is the whole song. It should be
correct. I tried even harder with the whole song. I hope you like it!!

intro:                                                                        x2
e|-----------------------------------------------------------------------------|
B|-----------------------------------------------------------------------------|
G|-----------------------------------------------------------------------------|
D|--12-0-2-3-0-55-3-5-3-2------------------------------------------------------|
A|--12-0-2-3-0-55-3-5-3-2------------------------------------------------------|
E|--12-0-2-3-0-55-3-5-3-2------------------------------------------------------|

verse 1:                                                                      x2
e|-----------------------------------------------------------------------------|
B|-----------------------------------------------------------------------------|
G|-----------------------------------------------------------------------------|
D|--5-3--3--5---3--5-----------------------------------------------------------|
A|--5-3--3--5---3--5-----------------------------------------------------------|
E|--5-3--3--5---3--5-----------------------------------------------------------|

pre-chorus:
e|-----------------------------------------------------------------------------|
B|-----------------------------------------------------------------------------|
G|-----------------------------------------------------------------------------|
D|0---3--5--0---3--5--0---3--5--0----------------------------------------------|
A|0---3--5--0---3--5--0---3--5--0----------------------------------------------|
E|0---3--5--0---3--5--0---3--5--0----------------------------------------------|

chorus:                                                                       x2
e|-----------------------------------------------------------------------------|
B|-----------------------------------------------------------------------------|
G|-----------------------------------------------------------------------------|
D|--12-0-2-3-0-5--5-3-2-12-0-2-3-0-5--5-3-2------------------------------------|
A|--12-0-2-3-0-5--5-3-2-12-0-2-3-0-5--5-3-2------------------------------------|
E|--12-0-2-3-0-5--5-3-2-12-0-2-3-0-5--5-3-2------------------------------------|

intro:                                                                        x2
e|-----------------------------------------------------------------------------|
B|-----------------------------------------------------------------------------|
G|-----------------------------------------------------------------------------|
D|--12-0-2-3-0-55-3-5-3-2------------------------------------------------------|
A|--12-0-2-3-0-55-3-5-3-2------------------------------------------------------|
E|--12-0-2-3-0-55-3-5-3-2------------------------------------------------------|

verse 2:                                                                      x2
e|-----------------------------------------------------------------------------|
B|-----------------------------------------------------------------------------|
G|-----------------------------------------------------------------------------|
D|--5-3--3--5---3--5-----------------------------------------------------------|
A|--5-3--3--5---3--5-----------------------------------------------------------|
E|--5-3--3--5---3--5-----------------------------------------------------------|

pre-chorus:
e|-----------------------------------------------------------------------------|
B|-----------------------------------------------------------------------------|
G|-----------------------------------------------------------------------------|
D|0---3--5--0---3--5--0---3--5--0----------------------------------------------|
A|0---3--5--0---3--5--0---3--5--0----------------------------------------------|
E|0---3--5--0---3--5--0---3--5--0----------------------------------------------|

chorus:                                                                       x2
e|-----------------------------------------------------------------------------|
B|-----------------------------------------------------------------------------|
G|-----------------------------------------------------------------------------|
D|--12-0-2-3-0-5--5-3-2-12-0-2-3-0-5--5-3-2------------------------------------|
A|--12-0-2-3-0-5--5-3-2-12-0-2-3-0-5--5-3-2------------------------------------|
E|--12-0-2-3-0-5--5-3-2-12-0-2-3-0-5--5-3-2------------------------------------|

bridge:
e|-----------------------------------------------------------------------------|
B|-----------------------------------------------------------------------------|
G|-----------------------------------------------------------------------------|
D|--0--------------------------------------------------------------------------|
A|--0--------------------------------------------------------------------------|
E|--0-0-3-05--5-3-20--0-3-05--5-3-20-------------------------------------------|

intro:                                                                        x4
e|-----------------------------------------------------------------------------|
B|-----------------------------------------------------------------------------|
G|-----------------------------------------------------------------------------|
D|--12-0-2-3-0-55-3-5-3-2------------------------------------------------------|
A|--12-0-2-3-0-55-3-5-3-2------------------------------------------------------|
E|--12-0-2-3-0-55-3-5-3-2------------------------------------------------------|

chorus 2:                                                                     x4
e|-----------------------------------------------------------------------------|
B|-----------------------------------------------------------------------------|
G|-----------------------------------------------------------------------------|
D|--12-0-2-3-0-55-3-5-3-2-12-0-2-3-0-55--3-5-3-2-------------------------------|
A|--12-0-2-3-0-55-3-5-3-2-12-0-2-3-0-55--3-5-3-2-------------------------------|
E|--12-0-2-3-0-55-3-5-3-2-12-0-2-3-0-55--3-5-3-2-------------------------------|

intro:                                                                        x4
e|-----------------------------------------------------------------------------|
B|-----------------------------------------------------------------------------|
G|-----------------------------------------------------------------------------|
D|--12-0-2-3-0-55-3-5-3-2-0----------------------------------------------------|
A|--12-0-2-3-0-55-3-5-3-2-0----------------------------------------------------|
E|--12-0-2-3-0-55-3-5-3-2-0----------------------------------------------------|
let the last note ring.
Suggest correction
Give kudos to tab author, rate the tab!
1 2 3 4 5
comments
print report bad tab
guest
You may want to rate the tab now too:
select rating
Wanna post a correction for this tab? Suggest correction