Oops, an error
Loading. Please wait.

Radiator Bass Tab

version 1
version 1

Whole song

4,607 views 1 this week
2 commentsread comments
1 2 3 4 5
x 3
add to favorites
launch autoscroll
font size
0
reset
guitar tuner
Autoscroll
slow
fast
+/-
esc
set tempo
stop
Help us to improve Ultimate-Guitar.com Take our survey!
×
Radiator - Family Force 5

G---------------------------------|
D---------------------------------|
A---------------------------------| x2
E-5-5-5-5-5-5-8-8-2-2-2-2-2-2-8-8-|

G---------------------------------|
D---------------------------------|
A---------------------------------|
E-5-5-5-5-5-5-8-8-2-2-2-2-3-3-8-8-|

G---------------------------------|
D---------------------------------|
A---------------------------------|
E-5-5-5-5-5-5-8-8-2-2-2-2-3-3-8-7-|

G---------------------------------|
D---------------------------------|
A---------------------------------| x4(play last 2 softly)
E-5-5-5-5-5-5-8-8-2-2-2-2-2-2-8-8-|

G---------|----|-------------------|
D---------|----|-------------------|
A---------|-x2-|-------------------|
E-5-3-5-8-|----|-10-8-10-8-3-2-3-2-|

G---------------------------------------------|
D---------------------------------------------|
A---------------------------------------------|
E---35---35-10-8-35-10-8-35-10-8-35-10-8-10-8-|

G----------------------------------|
D----------------------------------|
A----------------------------------|
E-35-10-8-35-10-8-35-10-8-10-8-5-3-|

G---------------------------------|
D---------------------------------|
A---------------------------------| x2
E-5-5-5-5-5-5-8-8-2-2-2-2-3-3-8-8-|

G---------------------------------|
D---------------------------------|
A---------------------------------| x2
E-5-5-5-5-5-5-8-8-2-2-2-2-2-2-8-8-|

G---------|----|-------------------|
D---------|----|-------------------|
A---------|-x2-|-------------------| x2
E-5-3-5-8-|----|-10-8-10-8-3-2-3-2-|

G----------------|
D----------------|
A----------------|
E---35---35---35-|

G-----------------------------------------|
D-----------------------------------------|
A-----------------------------------------|
E-35-3-8-10-3-5-8-10-3-10-8-10-3-10-12-10-|

G---------------------------------------|
D---------------------------------------|
A---------------------------------------|
E-3-5-8-10-3-5-8-10-12-10-8-5-12-10-8-5-|

G---------------------------------|
D---------------------------------|
A---------------------------------| x2 (play softly)
E-5-5-5-5-5-5-8-8-2-2-2-2-2-2-8-8-|

G---------|----|-------------------|
D---------|----|-------------------|
A---------|-x2-|-------------------| x2
E-5-3-5-8-|----|-10-8-10-8-3-2-3-2-|

G----------|----|---|
D----------|----|---|
A----------|-x3-|---|
E-10-8-5-3-|----|-5-|

Suggest correction
Give kudos to tab author, rate the tab!
1 2 3 4 5
comments
print report bad tab
2 comments total.
+1 reply
canadianeh? 31 Dec 03, 2009 08:38 PM

This is a pretty good tab but it would be a lot easier to read if you put in the verse and chorus titles

0 reply
Jigglez? 52 Sep 11, 2011 06:54 PM

Yeah, I agree, but overall, it's a really good tab, nice job!

guest
You may want to rate the tab now too:
select rating
Wanna post a correction for this tab? Suggest correction