Oops, an error
Loading. Please wait.

Replace Me Tab

version 1
version 1

Intro

Whole song

1,237 views 1 this week
1 commentread comment
1 2 3 4 5
accurate
x 4
add to favorites
launch autoscroll
font size
0
reset
how to read this tab
guitar tuner
Tab Pro tools
  • play this tab
  • loop segment
  • change instrument
  • show fretboard
  • metronome
×
Best way to learn
"Replace Me"
Autoscroll
slow
fast
+/-
esc
set tempo
stop
Contributor
Difficulty
Tuning
novice
D A D G B E
Family Force 5

Replace Me

Tabbed By: Luke (dental boy lol marc)
and yes marc, i actually did it myself.

Email me at v4815162342@aim.com if you have any questions or comments.


Starts with a synthesizer sounding thing

Intro
e|------------------------|
b|--33-----88-77-33-------|
G|------------------------|
D|------------------------|
A|------------------------|
D|------------------------|x5

Then a guitar comes in with

e|------------------------|
b|------------------------|
G|-------44---------------|
D|-55-44-44---------------|
A|-55-44-22---------------|
D|-55-44------------------|x4

e|------------------------------------------|
b|------------------------------------------|
G|------------------------------------------|
D|-55-44------------------------------------|
A|-55-44------------------------------------|
D|-55-44--5xx-5xx-5xx-5h7~--2xx-2xx-2xx-2h4~|

e|-----------------------------------|
b|-----------------------------------|
G|-----------------------------------|
D|-------------------------------2~--|
A|-------------------------------2~--|
D|-5xx-5xx-5xx-5h7~--2xx-2xx-2xx-2~--|

Chorus

e|----------------------------|
b|----------------------------|
G|-44-4---77-7----------------|
D|-44-4---77-7---55-5---22-2--|
A|-22-2---55-5---55-5---22-2--|
D|---------------55-5---22-2--|x4

e|-----------------------------------------------------------------|
b|-----------------------------------------------------------------|
G|-44-----------------------4b--44-----------------------5--5--5-4-|
D|-44-2-4-5-4-2-4-2-4-5-2-4-----44-2-4-5-4-2-4-2-4-5-2---5--5--5-4-|
A|-22-2-4-5-4-2-4-2-4-5-2-4-----22-2-4-5-4-2-4-2-4-5-2---3--3--3-2-|
D|----2-4-5-4-2-4-2-4-5-2-4--------2-4-5-4-2-4-2-4-5-2-------------|

e|---------------|
b|---------------|
G|-------44------|
D|-55-44-44------|
A|-55-44-22------|
D|-55-44---------|x3


e|-----------------------------------|
B|-----------------------------------|
G|-----------------------------------|
D|-----------------------------------|
A|-----------------------------------|
D|-5xx-5xx-5xx-5h7~--2xx-2xx-2xx-2h4~|

e|-----------------------------------|
b|-----------------------------------|
G|-----------------------------------|
D|-------------------------------2~--|
A|-------------------------------2~--|
D|-5xx-5xx-5xx-5h7~--2xx-2xx-2xx-2~--|

Chorus

e|----------------------------|
b|----------------------------|
G|-44-4---77-7----------------|
D|-44-4---77-7---55-5---22-2--|
A|-22-2---55-5---55-5---22-2--|
D|---------------55-5---22-2--|x4

e|--------------------------------|
b|--------------------------------|
G|-74747474--7-4~---5-4~---7-4~---|
D|-----------7-4~---5-4~---7-4~---|
A|-----------5-2~---3-2~---5-2~---|
D|--------------------------------|

just play the little riff after thechorus, then the chorus, then that riff again. If you 
me to do the solo, email me and ill do it.

ending

e|------------------------------------|
b|------------------------------------|
G|------------------------------------|
D|------------------------------------|
A|-2---0-5-0-2---0-5-0-2---0-5-0-2~~--|
D|---5---------5---------5------------|

and thats it, enjoy!
comments
print report bad tab
1 comment total.
0 reply
xo.pepper.nose wrote on March 3 2007, 12:42 am

this tab is pretty good... -emily-

I want to post or [tab]
guest
You may want to rate the tab now too:
select rating
Please do not post tabs as comments. Select "correction" instead!