Oops, an error
Loading. Please wait.

Supersonic Bass Tab

version 1
version 1

Whole song

5,045 views 1 this week
5 commentsread comments
1 2 3 4 5
accurate
x 3
add to favorites
launch autoscroll
font size
0
reset
guitar tuner
Autoscroll
slow
fast
+/-
esc
set tempo
stop
Help us to improve Ultimate-Guitar.com Take our survey!
×
yeah this is a pretty cool riff.
I'm pretty sure it's the riff you play for the whole song,but I'm not absolutely sure.

"drop D tuning"


|---------8--7----------------------|
|-----------------------------------|
|--5----5--5------33--5-------------|
|-----------------------------------|

okay I think that's the whole riff for the bass through out the song.
e-mail me at power0_0metal@yahoo.com if there are any mistakes.

ENJOY!
Suggest correction
Give kudos to tab author, rate the tab!
1 2 3 4 5
comments
print report bad tab
5 comments total. Showing first comments.
-1 reply
jesuspunk777 135 wrote on August 25 2008, 05:36 pm

actually its played like this

G:---------------------
D:-----8h10------------
A:5----------3-3-5-----
E:---------------------
but good try though

+2 reply
jesuspunk777 135 wrote on August 25 2008, 05:38 pm

nevermind that one above i made a mistake in that one

G:----------------------
D:-----8h10-------------
A:5----------3h5---33-5-
E:----------------------

0 reply
soup51 10 wrote on July 10 2009, 10:49 am

good job. jessuspunk777. i think you ment this though.

G:-----8h10-------------
D:----------------------
A:5----------3h5---33-5-
E:----------------------

guest
You may want to rate the tab now too:
select rating
Please do not post tabs as comments. Select "correction" instead!