Oops, an error
Loading. Please wait.

The First Time Tab

version 1
version 1

Whole song

2,831 views 1 this week
3 commentsread comments
1 2 3 4 5
1 last vote to show rating
add to favorites
launch autoscroll
font size
0
reset
how to read this tab
guitar tuner
Autoscroll
slow
fast
+/-
esc
set tempo
stop
Help us to improve Ultimate-Guitar.com Take our survey!
×
Tuning
D A D G B E
ok this is like my favorite song its the only hard song that you can play for a girl and 
them still be in love with you!

r= 10 R=12

this is the part at the beginning(00:06) with overdrive
e|------------------------------------------------------------------|
B|------------------------------------------------------------------|
G|------------------------------------------------------------------|
D|0000000000000000555555555555555599999999999999--5555555555555555--|
A|0000000000000000555555555555555599999999999999--5555555555555555--|
D|0000000000000000555555555555555599999999999999Rr5555555555555555--|
pm..............................................  ................
Verse:(00:19)
guitar 2 comes in first
e|----------------------------------------------------------------|
B|----------------------------------------------------------------|
G|----------------------------------------------------------------|  repeat
D|0000000000000000555555555555555599999999999999--5555555555555555|   2X
A|0000000000000000555555555555555599999999999999--5555555555555555|
D|0000000000000000555555555555555599999999999999Rr5555555555555555|
pm..............................................  ................

guitar 1 comes in at the second time that is repeated at the very beginning (00:31) "A 
note of you..."
e|-----2-----------2----------2----------2---|
B|--3----3-----3-----3-----3----3-----3----3-|
G|-------------------------------------------|  repeated as needed because
D|0---------0-----------0----------0---------|   im just to lazy to find it!
A|-------------------------------------------|
D|-------------------------------------------|
For the prechorus just play the verse once more

chorus guitars 1 and 2
e|----------------------------------------------------------------|
B|----------------------------------------------------------------|
G|----------------------------------------------------------------|  repeat
D|0000000000000000555555555555555599999999999999--5555555555555555|  4X
A|0000000000000000555555555555555599999999999999--5555555555555555|
D|0000000000000000555555555555555599999999999999Rr5555555555555555|

next is the verse 2 its the exact same as verse 1 except guitar one plays for the whole part
then chorus again
the bridge
guitar 2 stays the same as the verse but guitar 1:
e|-----2-----------2----------2----------2-----|
B|--3----3-----3-----3-----3----3-----3----3---|
G|------------2----------------------2---------|  repeated as needed
D|0---------0-----------0----------0-----------|
A|---------------------------------------------|
D|---------------------------------------------|


then you just play the chorus until the end! simple song and a great meaning and such 
song was tabbed by the guitarist for the iroknee check us out at 
we love ff5!
Suggest correction
Give kudos to tab author, rate the tab!
1 2 3 4 5
comments
print report bad tab
3 comments total.
+1 reply
shugo449 530 Sep 13, 2008 01:38 PM

sounds decent 4*

0 reply
Destamoon 92 Jul 12, 2009 02:34 AM

missing some stuff, prechorus is on the Em and then G

0 reply
UG_User 52 Sep 01, 2009 07:52 AM

this bit goes like this.

e|-----0-----------0----------0----------0---|
B|--3----3-----3-----3-----3----3-----3----3-|
G|-------------------------------------------|
D|0---------0-----------0----------0---------|
A|-------------------------------------------|
D|-------------------------------------------|

guest
You may want to rate the tab now too:
select rating
Wanna post a correction for this tab? Suggest correction