Oops, an error
Loading. Please wait.

Hero Tab

version 1
version 1

Whole song

  • This tab uses a simpler finger picking pattern tha... Show more
  • Because it includes all the tabs and also the lyri... Show more

Interactive

Video

330,375 views 876 this week
7 commentsread comments
1 2 3 4 5
x 195
add to favorites
launch autoscroll
font size
0
reset
how to read this tab
guitar tuner
×
Best way to learn
"Hero"
Autoscroll
slow
fast
+/-
esc
set tempo
stop
Author
Difficulty
Tuning
Capo
  follow
intermediate
E A D G B E
5th fret
SONG: Hero
ARTIST: Family Of The Year
ALBUM: Loma Vista
TUNING: Standard
CAPO: 5th fret
TABBED BY: Patrick Gamache

This song is finger-picked. There are two guitars that play, so it's tough
to get the full effect with just one guitar, but I think this is pretty 
close to what the best of both guitars have to offer.

[INTRO]

 C                C                C                C
e|----------------|----------------|----------------|----------------|
B|----------1-----|----------1-----|----------1-----|----------------|
G|------0-------0-|------0-------0-|------0-------0-|----------------|
D|----2------(2)--|----2------(2)--|----2------(2)--|----2-----------|
A|3-------3-------|3-------3-------|3-------3-------|3-------3~------|
E|----------------|----------------|----------------|----------------|

 C                C                C                C
e|----------------|0---------------|----------------|0---------------|
B|----------1-----|----------1-----|----------1-----|----------1-----|
G|------0-------0-|------0-------0-|------0-------0-|------0-------0-|
D|----2-------2---|----2-------2---|----2-------2---|----2-------2---|
A|3-------3-------|3-------3-------|3-------3-------|3-------3-------|
E|----------------|----------------|----------------|----------------|

 Am               Em               Em               Em
e|----------------|----------------|0---------------|----------------|
B|----------1-----|----------0-----|----------0-----|----------0-----|
G|------2-------2-|------0-------0-|------0-------0-|------0-------0-|
D|----2-------2---|----2-------2---|----2-------2---|----2-------2---|
A|0-------0-------|--------2-------|--------2-------|--------2-------|
E|----------------|0---------------|0---------------|0---------------|

 F                F                C                G
e|----------------|1---------------|----------------|----------------|
B|----------1-----|----------1-----|----------1-----|----------3-----|
G|------2-------2-|------2-------2-|------0-------0-|----0---------0-|
D|----3-------3---|----3-------3---|----2-------2---|--0---------0---|
A|--------1-------|--------1-------|3-------3-------|----------------|
E|1---------------|1---------------|----------------|3-------3-------|

 G
e|----------------|
B|----------3-----|
G|----0---------0-|
D|--0---------0---|
A|----------------|
E|3-------3-------|


[VERSE 1]

 C                C                C                C
e|----------------|----------------|----------------|0---------------|
B|----------1-----|----------1-----|----------1-----|----------1-----|
G|------0-------0-|------0-------0-|------0-------0-|------0-------0-|
D|----2-------2---|----2-------2---|----2-------2---|----2-------2---|
A|3-------3-------|3-------3-------|3-------3-------|3-------3-------|
E|----------------|----------------|----------------|----------------|

 Am               Em               Em               Em
e|----------------|----------------|----------------|----------0-----|
B|----------1-----|----------0-----|----------0-----|--0-------0-----|
G|------2-------2-|------0-------0-|------0-------0-|------0-------0-|
D|----2-------2---|----2-------2---|----2-------2---|----2-------2---|
A|0-------0-------|--------2-------|--------2-------|2-------2-------|
E|----------------|0---------------|0---------------|----------------|

 F                F                C
e|----------------|1---------------|----------------|
B|----------1-----|----------1-----|----------1-----|
G|------2-------2-|------2-------2-|------0-------0-|
D|----3-------3---|----3-------3---|----2-------2---|
A|--------1-------|--------1-------|3-------3-------|
E|1---------------|1---------------|----------------|

 G                G
e|----------------|----------------|
B|----------3-----|----------3-----|
G|----0---------0-|----0---------0-|
D|--0---------0---|--0---------0---|
A|2-------2-------|2-------2-------|
E|----------------|----------------|

[VERSE 2]
 
 C                C                C                C
e|----------------|0---------------|----------------|0---------------|
B|----------1-----|----------1-----|----------1-----|----------1-----|
G|------0-------0-|------0-------0-|------0-------0-|------0-------0-|
D|----2-------2---|----2-------2---|----2-------2---|----2-------2---|
A|3-------3-------|3-------3-------|3-------3-------|3-------3-------|
E|----------------|----------------|----------------|----------------|

 Am               Em               Em               Em
e|----------------|----------------|----------------|----------0-----|
B|----------1-----|----------0-----|----------0-----|--0-------0-----|
G|------2-------2-|------0-------0-|------0-------0-|------0-------0-|
D|----2-------2---|----2-------2---|----2-------2---|----2-------2---|
A|0-------0-------|--------2-------|--------2-------|2-------2-------|
E|----------------|0---------------|0---------------|----------------|

 F                F                C                G
e|----------------|1---------------|----------------|----------------|
B|----------1-----|----------1-----|----------1-----|----------3-----|
G|------2-------2-|------2-------2-|------0-------0-|----0---------0-|
D|----3-------3---|----3-------3---|----2-------2---|--0---------0---|
A|--------1-------|--------1-------|3-------3-------|----------------|
E|1---------------|1---------------|----------------|3-------3-------|

 G                G                G
e|----------------|----------------|--0-------0-----|
B|----------3-----|----------3-----|--3-------3-----|
G|------0-------0-|------0-------0-|------0-------0-|
D|----0-------0---|----0-------0---|----0-------0---|
A|----------------|----------------|----------------|
E|3-------3-------|3-------3-------|3-------3-------|


[VERSE 3]
 
 C                C                C                C
e|----------------|----------------|----------------|--0-------------|
B|----------1-----|----------1-----|----------1-----|--1-------1-----|
G|------0-------0-|------0-------0-|------0-------0-|------0-------0-|
D|----2-------2---|----2-------2---|----2-------2---|----2-------2---|
A|3-------3-------|3-------3-------|3-------3-------|3-------3-------|
E|----------------|----------------|----------------|----------------|

 Am               Em               Em               Em               Em
e|----------------|----------------|0---------------|----------------|----------0-----|
B|----------1-----|----------0-----|----------0-----|----------0-----|--0-------0-----|
G|------2-------2-|------0-------0-|------0-------0-|------0-------0-|------0-------0-|
D|----2-------2---|----2-------2---|----2-------2---|----2-------2---|----2-------2---|
A|0-------0-------|--------2-------|--------2-------|--------2-------|2-------2-------|
E|----------------|0---------------|0---------------|0---------------|----------------|

  F                F                C                G
e|----------------|1---------------|----------------|----------------|
B|----------1-----|----------1-----|----------1-----|----------3-----|
G|------2-------2-|------2-------2-|------0-------0-|------0-------0-|
D|----3-------3---|----3-------3---|----2-------2---|----0-------0---|
A|--------1-------|--------1-------|3-------3-------|----------------|
E|1---------------|1---------------|----------------|3-------3-------|

 G                G                G
e|----------------|----------------|---0-------------|
B|----------3-----|----------3-----|---3-------3-----|
G|------0-------0-|------0-------0-|-------0-------0-|
D|----0-------0---|----0-------0---|-----0-------0---|
A|2-------2-------|2-------2-------|2--------2-------|
E|----------------|----------------|-----------------|


[CHORUS]

 C                C                C                C
e|----------------|0---------------|----------------|0---------------|
B|----------1-----|----------1-----|----------1-----|----------1-----|
G|------0-------0-|------0-------0-|------0-------0-|------0-------0-|
D|----2-------2---|----2-------2---|----2-------2---|----2-------2---|
A|3-------3-------|3-------3-------|3-------3-------|3-------3-------|
E|----------------|----------------|----------------|----------------|

 Am               Em               Em               Em               
e|----------------|----------------|0---------------|----------0-----|
B|----------1-----|----------0-----|----------0-----|--0-------0-----|
G|------2-------2-|------0-------0-|------0-------0-|------0-------0-|
D|----2-------2---|----2-------2---|----2-------2---|----2-------2---|
A|0-------0-------|--------2-------|--------2-------|2-------2-------|
E|----------------|0---------------|0---------------|----------------|

 F                F                C                G
e|----------------|1---------------|----------------|----------------|
B|----------1-----|----------1-----|----------1-----|----------3-----|
G|------2-------2-|------2-------2-|------0-------0-|------0-------0-|
D|----3-------3---|----3-------3---|----2-------2---|----0-------0---|
A|--------1-------|--------1-------|3-------3-------|----------------|
E|1---------------|1---------------|----------------|3-------3-------|

 G
e|----------------|
B|----------3-----|
G|----0---------0-|
D|--0---------0---|
A|----------------|
E|3-------3-------|


{INSTRUMENTAL]

 C                C                C                C
e|----------------|----------------|----------------|--0-------------|
B|----------1-----|----------1-----|----------1-----|--1-------1-----|
G|------0-------0-|------0-------0-|------0-------0-|------0-------0-|
D|----2-------2---|----2-------2---|----2-------2---|----2-------2---|
A|3-------3-------|3-------3-------|3-------3-------|3-------3-------|
E|----------------|----------------|----------------|----------------|

 Am               Em               Em               Em
e|----------------|----------------|----------------|----------0-----|
B|----------1-----|----------0-----|----------0-----|--0-------0-----|
G|------2-------2-|------0-------0-|------0-------0-|------0-------0-|
D|----2-------2---|----2-------2---|----2-------2---|----2-------2---|
A|0-------0-------|--------2-------|--------2-------|2-------2-------|
E|----------------|0---------------|0---------------|----------------|

 F                F                C                G
e|----------------|1---------------|----------------|----------------|
B|----------1-----|----------1-----|----------1-----|----------3-----|
G|------2-------2-|------2-------2-|------0-------0-|------0-------0-|
D|----3-------3---|----3-------3---|----2-------2---|----0-------0---|
A|--------1-------|--------1-------|3-------3-------|----------------|
E|1---------------|1---------------|----------------|3-------3-------|

 G                G                G                  G
e|----------------|----------------|----------------|----------------|
B|----------3-----|----------3-----|----------3-----|----------3-----|
G|------0-------0-|------0-------0-|------0-------0-|------0-------0-|
D|----2-------0---|----0-------0---|----2-------2---|----0-------0---|
A|3-------2-------|2-------2-------|0-------0-------|----------------|
E|----------------|----------------|----------------|3-------3-------|

 G*               G*               G                G
e|----------------|----------------|----------------|----------------|
B|----------1-----|----------1-----|----------3-----|----------3-----|
G|------0-------0-|------0-------0-|------0-------0-|------0-------0-|
D|----0-------0---|----0-------0---|----0-------0---|----0-------0---|
A|--------2-------|--------2-------|----------------|----------------|
E|1---------------|1---------------|3-------3-------|3-------3-------|


[*INTRO*]

 C                C                C                C
e|----------------|0---------------|----------------|0---------------|
B|----------1-----|----------1-----|----------1-----|----------1-----|
G|------0-------0-|------0-------0-|------0-------0-|------0-------0-|
D|----2-------2---|----2-------2---|----2-------2---|----2-------2---|
A|3-------3-------|3-------3-------|3-------3-------|3-------3-------|
E|----------------|----------------|----------------|----------------|

 Am               Em               Em               Em
e|----------------|----------------|0---------------|----------------|
B|----------1-----|----------0-----|----------0-----|----------0-----|
G|------2-------2-|------0-------0-|------0-------0-|------0-------0-|
D|----2-------2---|----2-------2---|----2-------2---|----2-------2---|
A|0-------0-------|--------2-------|--------2-------|--------2-------|
E|----------------|0---------------|0---------------|0---------------|

 F                F                C                G
e|----------------|1---------------|----------------|----------------|
B|----------1-----|----------1-----|----------1-----|----------3-----|
G|------2-------2-|------2-------2-|------0-------0-|----0---------0-|
D|----3-------3---|----3-------3---|----2-------2---|--0---------0---|
A|--------1-------|--------1-------|3-------3-------|----------------|
E|1---------------|1---------------|----------------|3-------3-------|

 G
e|----------------|
B|----------3-----|
G|----0---------0-|
D|--0---------0---|
A|----------------|
E|3-------3-------|


[VERSE 1]

 C                C                C                C
e|----------------|----------------|----------------|0---------------|
B|----------1-----|----------1-----|----------1-----|----------1-----|
G|------0-------0-|------0-------0-|------0-------0-|------0-------0-|
D|----2-------2---|----2-------2---|----2-------2---|----2-------2---|
A|3-------3-------|3-------3-------|3-------3-------|3-------3-------|
E|----------------|----------------|----------------|----------------|

 Am               Em               Em               Em
e|----------------|----------------|----------------|----------0-----|
B|----------1-----|----------0-----|----------0-----|--0-------0-----|
G|------2-------2-|------0-------0-|------0-------0-|------0-------0-|
D|----2-------2---|----2-------2---|----2-------2---|----2-------2---|
A|0-------0-------|--------2-------|--------2-------|2-------2-------|
E|----------------|0---------------|0---------------|----------------|

  F                F                C                G
e|----------------|1---------------|----------------|----------------|
B|----------1-----|----------1-----|----------1-----|----------3-----|
G|------2-------2-|------2-------2-|------0-------0-|------0-------0-|
D|----3-------3---|----3-------3---|----2-------2---|----0-------0---|
A|--------1-------|--------1-------|3-------3-------|----------------|
E|1---------------|1---------------|----------------|3-------3-------|

 G                G                G
e|----------------|----------------|---0-------------|
B|----------3-----|----------3-----|---3-------3-----|
G|------0-------0-|------0-------0-|-------0-------0-|
D|----0-------0---|----0-------0---|-----0-------0---|
A|----------------|----------------|-----------------|
E|3-------3-------|3-------3-------|3--------3-------|


[FINAL]

 C                C                C                C
e|----------------|0---------------|----------------|0---------------|
B|----------1-----|----------1-----|----------1-----|----------1-----|
G|------0-------0-|------0-------0-|------0-------0-|------0-------0-|
D|----2-------2---|----2-------2---|----2-------2---|----2-------2---|
A|3-------3-------|3-------3-------|3-------3-------|3-------3-------|
E|----------------|----------------|----------------|----------------|

 Am               Em               Em               Em
e|----------------|----------------|0---------------|----------------|
B|----------1-----|----------0-----|----------0-----|----------0-----|
G|------2-------2-|------0-------0-|------0-------0-|------0-------0-|
D|----2-------2---|----2-------2---|----2-------2---|----2-------2---|
A|0-------0-------|--------2-------|--------2-------|--------2-------|
E|----------------|0---------------|0---------------|0---------------|

 F                F                C                G
e|----------------|1---------------|----------------|----------------|
B|----------1-----|----------1-----|----------1-----|----------3-----|
G|------2-------2-|------2-------2-|------0-------0-|------0-------0-|
D|----3-------3---|----3-------3---|----2-------2---|----0-------0---|
A|--------1-------|--------1-------|3-------3-------|2-------2-------|
E|1---------------|1---------------|----------------|----------------|

 C                G
e|----------------|----------------|
B|----------1-----|--3-------3-----|
G|------0-------0-|------0---0-----|
D|----2-------2---|----2-----0h2---|
A|3-------3-------|2---------3-----|
E|----------------|----------------|



***********************************
| (n)    Ghost note
***********************************
Suggest correction
comments
print report bad tab
7 comments total. Showing first comments.
0 reply
wotograf 10 Dec 18, 2013 11:29 AM

thanks a lot! nice TAB!

0 reply
Kevin_Johnson 10 Dec 26, 2013 07:40 PM

Good work!

0 reply
mutserd 19 Jun 24, 2014 06:30 AM

it sounds great, thanks!

guest
You may want to rate the tab now too:
select rating
Wanna post a correction for this tab? Suggest correction