Oops, an error
Loading. Please wait.

Hero chords

version 5
version 5

Whole song

Interactive

Video

2,482 views 33 this week
no commentswrite comment
1 2 3 4 5
x 10
add to favorites
×
Save as Personal and add changes to this tab that will be seen only by you. Learn more ›
×
You can save this tab as Personal to edit and correct it or add notes. All changes will be seen only by you. Learn more »
launch autoscroll
font size
0
reset
transpose
0
reset
simplify chords
display chords
guitar tuner
edit
Autoscroll
slow
fast
+/-
esc
set tempo
stop
About this tab version
No other version has the fingerstyle parts right in a hybrid chord/TAB format. This one meets that criteria PLUS fits on two printed pages for those that want to add to their songbook. Was this info helpful? Yes No
Strumming
There is no strumming pattern for this song yet. and get +5 IQ
Family of the Year - Hero
Capo 5th 

Intro
  C                               |                                ||
e|--------------------------------|--------------------------------|
B|----------1---------------1-----|----------1---------------------|
G|------0-------0-------0-------0-|------0-------0-----------------|
D|----2-------2-------2-------2---|----2-------2-------2-----------|
A|3-------3-------3-------3-------|3-------3-------3-------3~------|
E|--------------------------------|--------------------------------|

Verse 1
 C                               |                                |
----------------(0)--------------|----------------0---------------|
-----------1---------------1-----|----------1---------------1-----|
-------0-------0-------0-------0-|------0-------0-------0-------0-|
-----2-------2-------2-------2---|----2-------2-------2-------2---|
-3-------3-------3-------3-------|3-------3-------3-------3-------|
---------------------------------|--------------------------------|
 Let       me    go,                      I don't wanna be your  

 Am              Em              |                                |
---------------------------------(0)-------------(0)--------------|
-----------1---------------0-----|----------0---------------0-----|
-------2-------2-------0-------0-|------0-------0-------0-------0-|
-----2-------2-------2-------2---|----2-------2-------2-------2---|
-0-------0-----------------------|--------------------------------|
-----------------0-------0-------|0-------0-------0-------0-------|
        Hero                              I don't wanna be a 
    
 F                               |C              G                |              
-----------------1---------------|--------------------------------|
----------1----------------1-----|----------1---------------3-----|
------2-------2--------2-------2-|------0-------0-------0-------0-|
----3-------3--------3-------3---|----2-------2-------0-------0---|
---------------------------------|3-------3-----------------------|
-1------1--------1-------1-------|----------------3-------3-------|
Big man,          I just wanna fight with everyone 


G*                  (G**)                  
-----------------|           ------------------0-------------|
-----------3-----| (G* plus) -(3)------3---------------3-----|
-------0-------0-|           ------0-------0-------0-------0-|
-----0-------0---|           ----0-------0-------0-------0---|
-----------------|           --------------------------------|
-3-------3-------|           3-------3-------3-------3-------|
Else

       C                                    Am       Em  
 Your masquerade; I don't wanna be a part of your parade
                       F        C                 G*
 Everyone deserves a chance to walk with everyone else

        C                           Am      Em
 While holding down a job to keep my girl around
                        F                     C                G**      
 And maybe buy me some new strings and her a night out on the weekend

           C                                  Am        Em
 And we can whisper things, secrets from our American dreams
                     F                 C                G**
 Baby needs some protection but I'm a kid like everyone else

     C                             Am  Em 
 So let me go, I don't wanna be your hero
                     F                     C                  
 I don't wanna be a big man, I just wanna fight like everyone 
 G***                       
---------------------------------|
-----------3-------3-------3-----|
-------0-------0-------0-------0-|
-----0-------0-------0-------0---|
---------------------------------|
-3-------3-------3-------3-------|
Else


Interlude  C    |     |Am Em |Em   |F    |C G/B |Am G |F    |G*** ||
                Ooooh

     C                             Am  Em 
 So let me go, I don't wanna be your hero
                     F                     C                  G*
 I don't wanna be a big man, I just wanna fight with everyone else

       C                              Am             Em  
 Your masquerade; I don't wanna be a part of your parade
                       F        C                 G**
 Everyone deserves a chance to walk with everyone else


Outro   C    |    |Am Em |Em   |F    |

 C              G/B              |C              G/B       C      ||             
---------------------------------|--------------------------------|
-----------1---------------3-----|----------1-------3------1------|
-------0-------0-------0-------0-|------0-------0-------0--0------|
-----2-------2-------0-------0---|----2-------2-------0----0h2----|
-3-------3-------2-------2-------|3-------3-------2--------3------|
---------------------------------|--------------------------------|
                                                  rit.........

                                                                                                 
Suggest correction
Creating personal tab
Creating personal tab
You can edit any tab online and save it as your Personal.

You can edit, replace or remove any tab part or add personal notes – all changes will be seen only by you.

Personal tabs can be accessed anytime from any device, even offline.
Learn more »
comments
print report bad tab
guest
You may want to rate the tab now too:
select rating
Wanna post a correction for this tab? Suggest correction