Oops, an error
Loading. Please wait.

Hero tab

version 5
version 5

Whole song

  • This tab uses a simpler finger picking pattern tha... Show more
  • Because it includes all the tabs and also the lyri... Show more

Interactive

Video

982 views 1 this week
no commentswrite comment
1 2 3 4 5
3 more votes to show rating
add to favorites
×
Save as Personal and add changes to this tab that will be seen only by you. Learn more ›
×
You can save this tab as Personal to edit and correct it or add notes. All changes will be seen only by you. Learn more »
launch autoscroll
font size
0
reset
how to read this tab
guitar tuner
edit
Autoscroll
slow
fast
+/-
esc
set tempo
stop
About this tab version
This tab uses a simpler finger picking pattern that stays consistent throughout the song, unlike others that move up and down. I believe this tab sounds better than others submitted previously. Was this info helpful? Yes No
SONG: Hero
ARTIST: Family Of The Year
ALBUM: Loma Vista

TABBED BY: Bryan Gonzalez

TUNING: Standard
CAPO: 5th fret

INTRO:

 C                C                C                C
|----------------|----------------|----------------|----------------|
|----------1-----|----------1-----|----------1-----|----------------|
|------0-------0-|------0-------0-|------0-------0-|----------------|
|----2--------2--|----2-------2---|----2-------2---|----2-----------|
|3-------3-------|3-------3-------|3-------3-------|3-------3-------|
|----------------|----------------|----------------|----------------|

VERSES: 

Let me go…                                    I don't wanna be your…    
 C                C                C                C
|----------------|----------------|----------------|----------------|
|----------1-----|----------1-----|----------1-----|----------1-----|
|------0-------0-|------0-------0-|------0-------0-|------0-------0-|
|----2-------2---|----2-------2---|----2-------2---|----2-------2---|
|3-------3-------|3-------3-------|3-------3-------|3-------3-------|
|----------------|----------------|----------------|----------------|

hero…                                             I don't wanna be a 
 Am               Em               Em               Em
|----------------|----------------|----------------|----------------|
|----------1-----|----------0-----|----------0-----|----------0-----|
|------2-------2-|------2-------2-|------2-------2-|------2-------2-|
|----2-------2---|----2-------2---|----2-------2---|----2-------2---|
|0-------0-------|0-------0-------|0-------0-------|0-------0-------|
|----------------|----------------|----------------|----------------|

big man…                        I just wanna fight with everyone else…
 F                F                C                G
|----------------|----------------|----------------|----------------|
|----------1-----|----------1-----|----------1-----|----------0-----|
|------2-------2-|------2-------2-|------0-------0-|------0-------0-|
|----3-------3---|----3-------3---|----2-------2---|----0-------0---|
|3-------3-------|3-------3-------|3-------3-------|----------------|
|----------------|----------------|----------------|3-------3-------|


G
|----------------|
|----------0-----|
|------0-------0-|
|----0-------0---|
|----------------|
|3-------3-------|



Your masquerade…                                  I don't wanna be a
C                C                C                C
|----------------|----------------|----------------|----------------|
|----------1-----|----------1-----|----------1-----|----------1-----|
|------0-------0-|------0-------0-|------0-------0-|------0-------0-|
|----2-------2---|----2-------2---|----2-------2---|----2-------2---|
|3-------3-------|3-------3-------|3-------3-------|3-------3-------|
|----------------|----------------|----------------|----------------|

part of your parade…                             Everyone deserves a
Am               Em               Em               Em
|----------------|----------------|----------------|----------------|
|----------1-----|----------0-----|----------0-----|----------0-----|
|------2-------2-|------2-------2-|------2-------2-|------2-------2-|
|----2-------2---|----2-------2---|----2-------2---|----2-------2---|
|0-------0-------|0-------0-------|0-------0-------|0-------0-------|
|----------------|----------------|----------------|----------------|

chance to…                          Walk with everyone else
F                F                C                G
|----------------|----------------|----------------|----------------|
|----------1-----|----------1-----|----------1-----|----------0-----|
|------2-------2-|------2-------2-|------0-------0-|------0-------0-|
|----3-------3---|----3-------3---|----2-------2---|----0-------0---|
|3-------3-------|3-------3-------|3-------3-------|----------------|
|----------------|----------------|----------------|3-------3-------|

G
|----------------|
|----------0-----|
|------0-------0-|
|----0-------0---|
|----------------|
|3-------3-------|


While holding down…                                 A job to keep my
C                C                C                C
|----------------|----------------|----------------|----------------|
|----------1-----|----------1-----|----------1-----|----------1-----|
|------0-------0-|------0-------0-|------0-------0-|------0-------0-|
|----2-------2---|----2-------2---|----2-------2---|----2-------2---|
|3-------3-------|3-------3-------|3-------3-------|3-------3-------|
|----------------|----------------|----------------|----------------|

girl around…                                   And maybe buy me some
Am               Em               Em               Em
|----------------|----------------|----------------|----------------|
|----------1-----|----------0-----|----------0-----|----------0-----|
|------2-------2-|------2-------2-|------2-------2-|------2-------2-|
|----2-------2---|----2-------2---|----2-------2---|----2-------2---|
|0-------0-------|0-------0-------|0-------0-------|0-------0-------|
|----------------|----------------|----------------|----------------|

new strings…                      And her a night out on the weekend
F                F                C                G
|----------------|----------------|----------------|----------------|
|----------1-----|----------1-----|----------1-----|----------0-----|
|------2-------2-|------2-------2-|------0-------0-|------0-------0-|
|----3-------3---|----3-------3---|----2-------2---|----0-------0---|
|3-------3-------|3-------3-------|3-------3-------|----------------|
|----------------|----------------|----------------|3-------3-------|


G
|----------------|
|----------0-----|
|------0-------0-|
|----0-------0---|
|----------------|
|3-------3-------|


And we can whisper things…                          Secrets from our
C                C                C                C
|----------------|----------------|----------------|----------------|
|----------1-----|----------1-----|----------1-----|----------1-----|
|------0-------0-|------0-------0-|------0-------0-|------0-------0-|
|----2-------2---|----2-------2---|----2-------2---|----2-------2---|
|3-------3-------|3-------3-------|3-------3-------|3-------3-------|
|----------------|----------------|----------------|----------------|

American dreams…                                     Baby needs some
Am               Em               Em               Em
|----------------|----------------|----------------|----------------|
|----------1-----|----------0-----|----------0-----|----------0-----|
|------2-------2-|------2-------2-|------2-------2-|------2-------2-|
|----2-------2---|----2-------2---|----2-------2---|----2-------2---|
|0-------0-------|0-------0-------|0-------0-------|0-------0-------|
|----------------|----------------|----------------|----------------|

protection…                     But I'm a kid like everyone else
F                F                C                G
|----------------|----------------|----------------|----------------|
|----------1-----|----------1-----|----------1-----|----------0-----|
|------2-------2-|------2-------2-|------0-------0-|------0-------0-|
|----3-------3---|----3-------3---|----2-------2---|----0-------0---|
|3-------3-------|3-------3-------|3-------3-------|----------------|
|----------------|----------------|----------------|3-------3-------|


G
|----------------|
|----------0-----|
|------0-------0-|
|----0-------0---|
|----------------|
|3-------3-------|



So let me go…                                 I don't wanna be your,    
 C                C                C                C
|----------------|----------------|----------------|----------------|
|----------1-----|----------1-----|----------1-----|----------1-----|
|------0-------0-|------0-------0-|------0-------0-|------0-------0-|
|----2-------2---|----2-------2---|----2-------2---|----2-------2---|
|3-------3-------|3-------3-------|3-------3-------|3-------3-------|
|----------------|----------------|----------------|----------------|

hero…                                             I don't wanna be a 
 Am               Em               Em               Em
|----------------|----------------|----------------|----------------|
|----------1-----|----------0-----|----------0-----|----------0-----|
|------2-------2-|------2-------2-|------2-------2-|------2-------2-|
|----2-------2---|----2-------2---|----2-------2---|----2-------2---|
|0-------0-------|0-------0-------|0-------0-------|0-------0-------|
|----------------|----------------|----------------|----------------|

big man…                         I just wanna fight with everyone else
 F                F                C                G
|----------------|----------------|----------------|----------------|
|----------1-----|----------1-----|----------1-----|----------0-----|
|------2-------2-|------2-------2-|------0-------0-|------0-------0-|
|----3-------3---|----3-------3---|----2-------2---|----0-------0---|
|3-------3-------|3-------3-------|3-------3-------|----------------|
|----------------|----------------|----------------|3-------3-------|


G
|----------------|
|----------0-----|
|------0-------0-|
|----0-------0---|
|----------------|
|3-------3-------|

[REPEAT SAME PATTERN FOR BRIDGE AND REMAINING VERSES]

Ooooohh... (x1)

So let me go
I don't wanna be your hero
I don't wanna be a big man
I just wanna fight with everyone else

Your masquerade
I don't wanna be a part of your parade
Everyone deserves a chance to
Walk with everyone else

[The End]


-I love this song and have played it many times using this tab. This is my Very first tab ever 
and I hope everyone enjoys it and learns this great song. Cheers!



            
            
Suggest correction
Creating personal tab
Creating personal tab
You can edit any tab online and save it as your Personal.

You can edit, replace or remove any tab part or add personal notes – all changes will be seen only by you.

Personal tabs can be accessed anytime from any device, even offline.
Learn more »
Give kudos to tab author, rate the tab!
1 2 3 4 5
comments
print report bad tab
guest
You may want to rate the tab now too:
select rating
Wanna post a correction for this tab? Suggest correction