Oops, an error
Loading. Please wait.

Hero Tab

version 6
version 6

Whole song

  • This tab uses a simpler finger picking pattern tha... Show more
  • Because it includes all the tabs and also the lyri... Show more

Interactive

Video

82 views 9 this week
no commentswrite comment
1 2 3 4 5
3 more votes to show rating
add to favorites
launch autoscroll
font size
0
reset
how to read this tab
guitar tuner
Autoscroll
slow
fast
+/-
esc
set tempo
stop
Help us to improve Ultimate-Guitar.com Take our survey!
×
Author
Capo
5th fret
About this tab version
Because it includes all the tabs and also the lyrics with chords. So when you have learned to play the tabs you can scroll down to also start singing. Was this info helpful? Yes No
Band    : Family of the Year
Song    : Hero
Album   : Loma Vista

Tuning  : Standard (EADGBe)

Capo    : 5th Fret


---------------
INTRO
---------------

   C
e|-----------------|-----------------|-----------------|-----------------|
B|-----------1-----|-----------1-----|-----------1-----|-----------------|
G|-------0-------0-|-------0-------0-|-------0-------0-|-----------------|
D|-----2-------2---|-----2-------2---|-----2-------2---|-----2-----------|
A|-3-------3-------|-3-------3-------|-3-------3-------|-3-------3-------|
E|-----------------|-----------------|-----------------|-----------------|


---------------
VERSE ONE
---------------

   C
e|-----------------|-0---------------|-----------------|-0---------------|
B|-----------1-----|-----------1-----|-----------1-----|-----------1-----|
G|-------0-------0-|-------0-------0-|-------0-------0-|-------0-------0-|
D|-----2-------2---|-----2-------2---|-----2-------2---|-----2-------2---|
A|-3-------3-------|-3-------3-------|-3-------3-------|-3-------3-------|
E|-----------------|-----------------|-----------------|-----------------|
   "Let me go..."

   Am                Em
e|-----------------|-----------------|-0---------------|---0-------------|
B|-----------1-----|-----------0-----|-----------0-----|-----------0-----|
G|-------2-------2-|-------0-------0-|-------0-------0-|-------0-------0-|
D|-----2-------2---|-----2-------2---|-----2-------2---|-----2-------2---|
A|-0-------0-------|-----------------|-----------------|-----------------|
E|-----------------|-0-------0-------|-0-------0-------|-0-------0-------|
   "Hero..."

   F                                   C                 G
e|-----------------|-1---------------|-----------------|-----------------|-----------------|
B|-----------1-----|-----------1-----|-----------1-----|-----------3-----|-----------3-----|
G|-------2-------2-|-------2-------2-|-------0-------0-|-------0-------0-|-------0-------0-|
D|-----3-------3---|-----3-------3---|-----2-------2---|-----0-------0---|-----0-------0---|
A|-----------------|-----------------|-3-------3-------|-----------------|-----------------|
E|-1-------1-------|-1-------1-------|-----------------|-3-------3-------|-3-------3-------|
   "Big man..."


---------------
VERSE TWO
---------------
   C
e|-----------------|-----------------|-----------------|-0---------------|
B|-----------1-----|-----------1-----|-----------1-----|-----------0-----|
G|-------0-------0-|-------0-------0-|-------0-------0-|-------0-------0-|
D|-----2-------2---|-----2-------2---|-----2-------2---|-----2-------2---|
A|-3-------3-------|-3-------3-------|-3-------3-------|-3-------3-------|
E|-----------------|-----------------|-----------------|-----------------|
   "Your masquerade..."

   Am                Em
e|-----------------|-----------------|-----------------|-----------0-----|
B|-----------1-----|-----------0-----|-----------0-----|---0-------------|
G|-------2-------2-|-------0-------0-|-------0-------0-|-------0-------0-|
D|-----2-------2---|-----2-------2---|-----2-------2---|-----2-------2---|
A|-0-------0-------|-----------------|-----------------|-----------------|
E|-----------------|-0-------0-------|-0-------0-------|-0-------0-------|
   "A part of your parade..."

   F                                   C                 G
e|-----------------|-1---------------|-----------------|-----------------|-----------------|
B|-----------1-----|-----------1-----|-----------1-----|-----------3-----|-----------3-----|
G|-------2-------2-|-------2-------2-|-------0-------0-|-------0-------0-|-------0-------0-|
D|-----3-------3---|-----3-------3---|-----2-------2---|-----0-------0---|-----0-------0---|
A|-----------------|-----------------|-3-------3-------|-----------------|-----------------|
E|-1-------1-------|-1-------1-------|-----------------|-3-------3-------|-3-------3-------|
   "The chance to..."


---------------
VERSE THREE
---------------
   C
e|-----------------|-----------------|-----------------|-0---------------|
B|-----------1-----|-----------1-----|-----------1-----|-----------1-----|
G|-------0-------0-|-------0-------0-|-------0-------0-|-------0-------0-|
D|-----2-------2---|-----2-------2---|-----2-------2---|-----2-----------|
A|-3-------3-------|-3-------3-------|-3-------3-------|-3-------3-------|
E|-----------------|-----------------|-----------------|-----------------|
   "While holding down..."

   Am                Em
e|-----------------|-----------------|-----------------|-0---------------|
B|-----------1-----|-----------0-----|-----------0-----|-----------0-----|
G|-------2-------2-|-------0-------0-|-------0-------0-|-------0-------0-|
D|-----2-------2---|-----2-------2---|-----2-------2---|-----2-------2---|
A|-0-------0-------|-----------------|-----------------|-----------------|
E|-----------------|-0-------0-------|-0-------0-------|-0-------0-------|
   "Girl around..."

   F                                   C                 G
e|-----------------|-1---------------|-----------------|-----------------|-----------------|
B|-----------1-----|-----------1-----|-----------1-----|-----------3-----|-----------3-----|
G|-------2-------2-|-------2-------2-|-------0-------0-|-------0-------0-|-------0-------0-|
D|-----3-------3---|-----3-------3---|-----2-------2---|-----0-------0---|-----0-------0---|
A|-----------------|-----------------|-3-------3-------|-----------------|-----------------|
E|-1-------1-------|-1-------1-------|-----------------|-3-------3-------|-3-------3-------|
   "New strings..."


---------------
FILL ONE
---------------

   G
e|-----------------|---0-------------|
B|---3-------3-----|-----------3-----|
G|-------0-------0-|-------0-------0-|
D|-----0-------0---|-----0-------0---|
A|-----------------|-----------------|
E|-3-------3-------|-3-------3-------|


---------------
VERSE FOUR
---------------

   C
e|-----------------|-0---------------|-----------------|---0-------------|
B|-----------1-----|-----------1-----|-----------1-----|-----------1-----|
G|-------0-------0-|-------0-------0-|-------0-------0-|-------0-------0-|
D|-----2-------2---|-----2-------2---|-----2-------2---|-----2-------2---|
A|-3-------3-------|-3-------3-------|-3-------3-------|-3-------3-------|
E|-----------------|-----------------|-----------------|-----------------|
   "We can whisper things..."

   Am                Em
e|-----------------|-----------------|-0---------------|-----------------|---0-------0-----|
B|-----------1-----|-----------0-----|-----------0-----|-----------0-----|-----------------|
G|-------2-------2-|-------0-------0-|-------0-------0-|-------0-------0-|-------0-------0-|
D|-----2-------2---|-----2-------2---|-----2-------2---|-----2-------2---|-----2-------2---|
A|-0-------0-------|-----------------|-----------------|-----------------|-----------------|
E|-----------------|-0-------0-------|-0-------0-------|-0-------0-------|-0-------0-------|
   "American dreams..."

   F                                   C                 G
e|-----------------|-1---------------|-----------------|-----------------|-----------------|
B|-----------1-----|-----------1-----|-----------1-----|-----------3-----|-----------3-----|
G|-------2-------2-|-------2-------2-|-------0-------0-|-------0-------0-|-------0-------0-|
D|-----3-------3---|-----3-------3---|-----2-------2---|-----0-------0---|-----0-------0---|
A|-----------------|-----------------|-3-------3-------|-----------------|-----------------|
E|-1-------1-------|-1-------1-------|-----------------|-3-------3-------|-3-------3-------|
   "Protection..."


---------------
FILL TWO
---------------

   G
e|-----------------|---0-------------|
B|-----------3-----|-----------3-----|
G|-------0-------0-|-------0-------0-|
D|-----0-------0---|-----0-------0---|
A|-----------------|-----------------|
E|-3-------3-------|-3-------3-------|


---------------
VERSE FIVE
---------------

   C
e|-----------------|-0---------------|-----------------|-0---------------|
B|-----------1-----|-----------1-----|-----------1-----|-----------1-----|
G|-------0-------0-|-------0-------0-|-------0-------0-|-------0-------0-|
D|-----2-------2---|-----2-------2---|-----2-------2---|-----2-------2---|
A|-3-------3-------|-3-------3-------|-3-------3-------|-3-------3-------|
E|-----------------|-----------------|-----------------|-----------------|
   "So let me go..."

   Am                Em
e|-----------------|-----------------|-0---------------|-----------------|
B|-----------1-----|-----------0-----|-----------0-----|---0-------0-----|
G|-------2-------2-|-------0-------0-|-------0-------0-|-------0-------0-|
D|-----2-------2---|-----2-------2---|-----2-------2---|-----2-------2---|
A|-0-------0-------|-----------------|-----------------|-----------------|
E|-----------------|-0-------0-------|-0-------0-------|-0-------0-------|
   "Hero..."

   F                                   C                 G
e|-----------------|-1---------3-----|-----------------|-----------------|-----------------|
B|-----------1-----|-----------------|-----------1-----|-----------3-----|---3-------3-----|
G|-------2-------2-|-------2-------2-|-------0-------0-|-------0-------0-|-------0-------0-|
D|-----3-------3---|-----3-------3---|-----2-------2---|-----0-------0---|-----0-------0---|
A|-----------------|-----------------|-3-------3-------|-----------------|-----------------|
E|-1-------1-------|-1-------1-------|-----------------|-3-------3-------|-3-------3-------|
   "Big man..."


---------------
INSTRUMENTAL
---------------

   C
e|-----------------|-----------------|-----------------|-----------------|
B|-----------1-----|-----------1-----|-----------1-----|---1-------1-----|
G|-------0-------0-|-------0-------0-|-------0-------0-|-------0-------0-|
D|-----2-------2---|-----2-------2---|-----2-------2---|-----2-------2---|
A|-3-------3-------|-3-------3-------|-3-------3-------|-3-------3-------|
E|-----------------|-----------------|-----------------|-----------------|

   Am                Em
e|-----------------|-----------------|-----------------|-0---------------|
B|-----------1-----|-----------0-----|-----------0-----|-----------0-----|
G|-------2-------2-|-------0-------0-|-------0-------0-|-------0-------0-|
D|-----2-------2---|-----2-------2---|-----2-------2---|-----2-------2---|
A|-0-------0-------|-----------------|-----------------|-----------------|
E|-----------------|-0-------0-------|-0-------0-------|-0-------0-------|

   F                                   C                 Gsus4
e|-----------------|-1---------------|-----------------|-----------------|
B|-----------1-----|-----------1-----|-----------1-----|-----------3-----|
G|-------2-------2-|-------2-------2-|-------0-------0-|-------0-------0-|
D|-----3-------3---|-----3-------3---|-----2-------2---|-----0-------0---|
A|-----------------|-----------------|-3-------3-------|-2-------2-------|
E|-1-------1-------|-1-------1-------|-----------------|-----------------|

   Am                C/G              F
e|-----------------|-----------------|-----------------|-1---------------|
B|-----------1-----|-----------1-----|-----------1-----|-----------1-----|
G|-------2-------2-|-------0-------0-|-------2-------2-|-------2-------2-|
D|-----2-------2---|-----2-------2---|-----3-------3---|-----3-------3---|
A|-0-------0-------|-----------------|-----------------|-----------------|
E|-----------------|-3-------3-------|-1-------1-------|-1-------1-------|

   G
e|-----------------|-----------------|
B|-----------3-----|-----------3-----|
G|-------0-------0-|-------0-------0-|
D|-----0-------0---|-----0-------0---|
A|-----------------|-----------------|
E|-3-------3-------|-3-------3-------|


---------------
VERSE SIX
---------------

   C
e|-----------------|-0---------------|-----------------|---0-------------|
B|-----------1-----|-----------1-----|-----------1-----|-----------1-----|
G|-------0-------0-|-------0-------0-|-------0-------0-|-------0-------0-|
D|-----2-------2---|-----2-------2---|-----2-------2---|-----2-------2---|
A|-3-------3-------|-3-------3-------|-3-------3-------|-3-------3-------|
E|-----------------|-----------------|-----------------|-----------------|
   "Let me go..."

   Am                Em
e|-----------------|-----------------|-----------------|-0---------------|
B|-----------1-----|-----------0-----|-----------0-----|-----------0-----|
G|-------2-------2-|-------0-------0-|-------0-------0-|-------0-------0-|
D|-----2-------2---|-----2-------2---|-----2-------2---|-----2-------2---|
A|-0-------0-------|-----------------|-----------------|-----------------|
E|-----------------|-0-------0-------|-0-------0-------|-0-------0-------|
   "Hero..."

   F                                   C                 G
e|-----------------|-----------------|-----------------|-----------------|-----------------|
B|-----------1-----|-----------1-----|-----------1-----|-----------3-----|-----------3-----|
G|-------2-------2-|-------2-------2-|-------0-------0-|-------0-------0-|-------0-------0-|
D|-----3-------3---|-----3-------3---|-----2-------2---|-----0-------0---|-----0-------0---|
A|-----------------|-----------------|-3-------2-------|-----------------|-----------------|
E|-1-------1-------|-1-------1-------|-----------------|-3-------3-------|-3-------3-------|
   "Big man..."


---------------
VERSE SEVEN
---------------
   C
e|-----------------|-0---------------|-----------------|---0-------------|
B|-----------1-----|-----------1-----|-----------1-----|-----------1-----|
G|-------0-------0-|-------0-------0-|-------0-------0-|-------0-------0-|
D|-----2-------2---|-----2-------2---|-----2-------2---|-----2-------2---|
A|-3-------3-------|-3-------3-------|-3-------3-------|-3-------3-------|
E|-----------------|-----------------|-----------------|-----------------|
   "Your masquerade..."

   Am                Em
e|-----------------|-----------------|-----------------|-0---------------|
B|-----------1-----|-----------0-----|-----------0-----|-----------0-----|
G|-------2-------2-|-------0-------0-|-------0-------0-|-------0-------0-|
D|-----2-------2---|-----2-------2---|-----2-------2---|-----2-------2---|
A|-0-------0-------|-----------------|-----------------|-----------------|
E|-----------------|-0-------0-------|-0-------0-------|-0-------0-------|
   "A part of your parade..."

   F                                   C                 G
e|-----------------|-1---------------|-----------------|-----------------|-----------------|
B|-----------1-----|-----------1-----|-----------1-----|-----------3-----|-----------3-----|
G|-------2-------2-|-------2-------2-|-------0-------0-|-------0-------0-|-------0-------0-|
D|-----3-------3---|-----3-------3---|-----2-------2---|-----0-------0---|-----0-------0---|
A|-----------------|-----------------|-3-------3-------|-----------------|-----------------|
E|-1-------1-------|-1-------1-------|-----------------|-3-------3-------|-3-------3-------|
   "The chance to..."


---------------
FILL THREE
---------------

   G
e|-----------------|---0-------------|
B|-----------3-----|-----------3-----|
G|-------0-------0-|-------0-------0-|
D|-----0-------0---|-----0-------0---|
A|-----------------|-----------------|
E|-3-------3-------|-3-------3-------|


---------------
OUTRO
---------------

   C
e|-----------------|-0---------------|-----------------|---0-------------|
B|-----------1-----|-----------1-----|-----------1-----|-----------1-----|
G|-------0-------0-|-------0-------0-|-------0-------0-|-------0-------0-|
D|-----2-------2---|-----2-------2---|-----2-------2---|-----2-------2---|
A|-3-------3-------|-3-------3-------|-3-------3-------|-3-------3-------|
E|-----------------|-----------------|-----------------|-----------------|

   Am                Em
e|-----------------|-----------------|-0---------------|-----------------|
B|-----------1-----|-----------0-----|-----------0-----|-----------0-----|
G|-------2-------2-|-------0-------0-|-------0-------0-|-------0-------0-|
D|-----2-------2---|-----2-------2---|-----2-------2---|-----2-------2---|
A|-0-------0-------|-----------------|-----------------|-----------------|
E|-----------------|-0-------0-------|-0-------0-------|-0-------0-------|

   F                                   C                 G
e|-----------------|-1---------------|-----------------|-----------------|
B|-----------1-----|-----------1-----|-----------1-----|-----------3-----|
G|-------2-------2-|-------2-------2-|-------0-------0-|-------0-------0-|
D|-----3-------3---|-----3-------3---|-----2-------2---|-----0-------0---|
A|-----------------|-----------------|-3-------3-------|-----------------|
E|-1-------1-------|-1-------1-------|-----------------|-3-------3-------|

   C                 Gsus4             C
e|-----------------|-----------------|-----------------------------------|
B|-----------1-----|-----1-----------|-1---------------------------------|
G|-------0-------0-|---------0-------|-0---------------------------------|
D|-----2-------2---|-------------0---|-0h2-------------------------------|
A|-3-------3-------|-2---------------|-3---------------------------------|
E|-----------------|-----------------|-----------------------------------|


------------------------------------------------------------

Lyrics & Chords:


[Intro]

C  C  C  C 


[Chorus]

 C
 Let me go
                    Am    Em
 I don't wanna be your hero
                    F
 I don't wanna be a big man
             C                  G
 Just wanna fight with everyone else
      C
 Your masquerade
                    Am           Em
 I don't wanna be a part of your parade
                      F 
 Everyone deserves a chance to
  C                G    G
 Walk with everyone else


[Verse]

          C
 While holding down
                  Am      Em
 A job to keep my girl around
                        F
 And maybe buy me some new strings
            C              G   G   G   G
 And her a night out on the weekend


[Verse 2]

             C
 And we can whisper things
                  Am       Em
 Secrets from our American dreams
                   F
 Baby needs some protection
           C                 G    G   G    G
 But I'm a kid like everyone else

     C
 So let me go
                      Am  Em
 I don't wanna be your hero
                    F
 I don't wanna be a big man
              C                   G    G
 I just wanna fight like everyone else


[Bridge]

 C Am Em
Ooooohh
 F    C  G/B  Am  G  F  F  G  G      
Ooooohh


[Chorus]

     C
 So let me go
                      Am Em
 I don't wanna be your hero
                    F
 I don't wanna be a big man
              C                   G    G
 I just wanna fight with everyone else

       C
 Your masquerade
                    Am            Em
 I don't wanna be a part of your parade
                      F 
 Everyone deserves a chance to
  C                 G    G    G    G
 Walk with everyone else


[Outro]

C Am Em F C G C Gsus4 C

-----------------------------------------------------

Learning version:

Lyrics & Chords:

C(x) x = amount of bars on chord


[Intro]

C  C  C  C 


[Chorus]

 C(4)
 Let me go
                   Am(1)  Em(3)
 I don't wanna be your hero
                    F(2)
 I don't wanna be a big man
             C(1)               G(2)
 Just wanna fight with everyone else
      C(4)
 Your masquerade
                    Am(1)        Em(3)
 I don't wanna be a part of your parade
                      F(2) 
 Everyone deserves a chance to
  C(1)              G(2)
 Walk with everyone else


[Verse]

          C(4)
 While holding down
                  Am(1)  Em(3)
 A job to keep my girl around
                        F(2)
 And maybe buy me some new strings
            C(1)            G(2)     G(2)*
 And her a night out on the weekend


[Verse 2]

             C(4)
 And we can whisper things
                  Am(1)    Em(4)
 Secrets from our American dreams
                   F(2)
 Baby needs some protection
           C(1)              G(2)   G(2)*
 But I'm a kid like everyone else

    C(4)
 So let me go
                   Am(1)  Em(3)
 I don't wanna be your hero
                    F(2)
 I don't wanna be a big man
              C(1)                G(2)
 I just wanna fight like everyone else


[Bridge]

 C Am Em
Ooooohh
 F    C  G/B  Am  G  F  F  G  G      
Ooooohh


[Chorus]

    C(4)
 So let me go
                   Am(1)  Em(3)
 I don't wanna be your hero
                    F(2)
 I don't wanna be a big man
              C(1)                G(2)
 I just wanna fight like everyone else

       C(4)
 Your masquerade
                    Am(1)        Em(3)
 I don't wanna be a part of your parade
                      F(2) 
 Everyone deserves a chance to
  C(1)              G(2)    G(2)*
 Walk with everyone else


[Outro]

C(4) Am(1) Em(3) F(2) C(1) G(2) C(1) Gsus4(1) C(1)
Suggest correction
Give kudos to tab author, rate the tab!
1 2 3 4 5
comments
print report bad tab
guest
You may want to rate the tab now too:
select rating
Wanna post a correction for this tab? Suggest correction