Oops, an error
Loading. Please wait.

The Walls Are Coming Down Bass Tab

556 views 3 this week
no commentswrite comment
1 2 3 4 5
3 more votes to show rating
add to favorites
launch autoscroll
font size
0
reset
guitar tuner
Autoscroll
slow
fast
+/-
esc
set tempo
stop
Help us to improve Ultimate-Guitar.com Take our survey!
×
Author
Song: The Walls are Coming Down 
Artist: Fanfarlo
Album: Reservoir
Tabbed by: Kris Pender
Standard Tuning

Intro
|----------------------------------|-----------------------------------|
|----------------------------------|---------------------------2-------|
|------------------2-------3-------|-2--------3-------5----------------|
|-3--------5-----------------------|-----------------------------------|

|----------------------------------|-----------------------------------|
|----------2-------4-------5-------|-5---5--5--5--5----5---5--5--5--5--|
|-5--------------------------------|----------------5-----------------5|
|----------------------------------|-----------------------------------|

|----------------------------------|-----------------------------------|
|----------------------------------|-5---5--5--5--5----5---5--5--5--5--|
|-3---3--3--3---3---5---5--5--5---5|----------------5-----------------5|
|-------------3-----------------5--|-----------------------------------|
                   
                                     Verse 1 (no bass)
|----------------------------------|-----------------------------------|
|----------------------------------|-/5--------------------------------|
|-3---3--3--3---3---5---5--5--5---5|-----------------------------------|
|-------------3-----------------5--|-----------------------------------|

|----------------------------------|-----------------------------------|
|----------------------------------|-----------------------------------|
|----------------------------------|-----------------------------------|
|----------------------------------|-----------------------------------|

|----------------------------------|-----------------------------------|
|----------------------------------|-----------------------------------|
|----------------------------------|-----------------------------------|
|----------------------------------|-----------------------------------|

|----------------------------------|-----------------------------------|
|----------------------------------|-----------------------------------|
|----------------------------------|-----------------------------------|
|----------------------------------|-----------------------------------|

                                     Verse 2
|----------------------------------|-----------------------------------|
|----------------------------------|-5---5--5--5--5----5---5--5--5--5--|
|----------------------------------|----------------5-----------------5|
|----------------------------------|-----------------------------------|

|----------------------------------|-----------------------------------|
|----------------------------------|-5---5--5--5--5----5---5--5--5--5--|
|-3---3--3--3---3---5---5--5--5---5|----------------5-----------------5|
|-------------3-----------------5--|-----------------------------------|

                                    Chorus
|----------------------------------|----------------------------------|
|----------------------------------|-----------------5---5-5---5-5-5--|
|-3---3--3--3---3---5---5--5--5---5|-3---3-3---3-3-5------------------|
|-------------3-----------------5--|----------------------------------|

|----------------------------------|----------------------------------|
|-----------------5---5-5---5-5-5--|-----------------2---2-2---2-2-2--|
|-3---3-3---3-3-5------------------|-3---3-3---3-3-5------------------|
|----------------------------------|----------------------------------|

|----------------------------------|----------------------------------|
|----------------------------------|-----------------5---5-5---5-5-5--|
|-5---5-5---5-5-5--5---5-5---5-5-5-|-3---3-3---3-3-5------------------|
|----------------------------------|----------------------------------|

|----------------------------------|----------------------------------|
|-----------------5---5-5---5-5-5--|-----------------2---2-2---2-2-2--|
|-3---3-3---3-3-5------------------|-3---3-3---3-3-5------------------|
|----------------------------------|----------------------------------|

                                    Verse 3
|----------------------------------|----------------------------------|
|----------------------------------|-5--------------------------------|
|-5---5-5---5-5-5--5---5-5---5-5-5-|----------------------------------|
|----------------------------------|----------------------------------|

|----------------------------------|-----------------------------------|
|----------------------------------|-----------------------------------|
|----------------------------------|-----------------------------------|
|----------------------------------|-----------------------------------|

|----------------------------------|-----------------------------------|
|----------------------------------|-----------------------------------|
|----------------------------------|-----------------------------------|
|----------------------------------|-----------------------------------|

|----------------------------------|-----------------------------------|
|----------------------------------|--------------------------5--5--5--|
|----------------------------------|-----------------------------------|
|----------------------------------|-----------------------------------|

|----------------------------------|-----------------------------------|
|----------------------------------|-5---5--5--5--5----5---5--5--5--5--|
|-3---3--3--3---3---5---5--5--5---5|----------------5-----------------5|
|-------------3-----------------5--|-----------------------------------|

                                    Chorus
|----------------------------------|----------------------------------|
|----------------------------------|-----------------5---5-5---5-5-5--|
|-3---3--3--3---3---5---5--5--5---5|-3---3-3---3-3-5------------------|
|-------------3-----------------5--|----------------------------------|

|----------------------------------|----------------------------------|
|-----------------5---5-5---5-5-5--|-----------------2---2-2---2-2-2--|
|-3---3-3---3-3-5------------------|-3---3-3---3-3-5------------------|
|----------------------------------|----------------------------------|

|----------------------------------|----------------------------------|
|----------------------------------|-----------------5---5-5---5-5-5--|
|-5---5-5---5-5-5--5---5-5---5-5-5-|-3---3-3---3-3-5------------------|
|----------------------------------|----------------------------------|

|----------------------------------|----------------------------------|
|-----------------5---5-5---5-5-5--|-----------------2---2-2---2-2-2--|
|-3---3-3---3-3-5------------------|-3---3-3---3-3-5------------------|
|----------------------------------|----------------------------------|

|----------------------------------|--------------------------------------|
|----------------------------------|--------------------------------------|
|-5---5-5---5-5-5--5---5-5---5-5-5-|-5---5-5--5--5--5--5--5--5--5--5--5--5|
|----------------------------------|--------------------------------------|

|-----------------------------------|-----------------------------------|
|-5--5--5--5--5--5--5--5--5--5--5--5|-5--5--5--5--5--5--5--5--5--5--5--5|
|-----------------------------------|-----------------------------------|
|-----------------------------------|-----------------------------------|

|-----------------------------------|-----------------------------------|
|-5--5--5--5--5--5--5--5--5--5--5--5|-5--5--5--5--5--5--5--5--5--5--5--5|
|-----------------------------------|-----------------------------------|
|-----------------------------------|-----------------------------------|

|--------/7----------------/7------|---------/7---------------/7------|
|-5-----------------5--------------|----------------------------------|
|----------------------------------|-3-----------------5--------------|
|----------------------------------|----------------------------------|

|--------/7----------------/7------|---------/7---------------/7------|
|-5-----------------5--------------|----------------------------------|
|----------------------------------|-3-----------------5--------------|
|----------------------------------|----------------------------------|

|-----------------------------------|----------------------------------|
|-5---5--5--5--5----5---5--5--5--5--|----------------------------------|
|----------------5-----------------5|-3---3--3--3---3---5---5--5--5---5|
|-----------------------------------|-------------3-----------------5--|

|-----------------------------------|----------------------------------|
|-5---5--5--5--5----5---5--5--5--5--|----------------------------------|
|----------------5-----------------5|-3---3--3--3---3---5---5--5--5---5|
|-----------------------------------|-------------3-----------------5--|

Chorus
|----------------------------------|----------------------------------|
|-----------------5---5-5---5-5-5--|-----------------5---5-5---5-5-5--|
|-3---3-3---3-3-5------------------|-3---3-3---3-3-5------------------|
|----------------------------------|----------------------------------|

|----------------------------------|----------------------------------|
|-----------------2---2-2---2-2-2--|----------------------------------|
|-3---3-3---3-3-5------------------|-5---5-5---5-5-5--5---5-5---5-5-5-|
|----------------------------------|----------------------------------|

|----------------------------------|----------------------------------|
|-----------------5---5-5---5-5-5--|-----------------5---5-5---5-5-5--|
|-3---3-3---3-3-5------------------|-3---3-3---3-3-5------------------|
|----------------------------------|----------------------------------|

|----------------------------------|----------------------------------|
|-----------------2---2-2---2-2-2--|----------------------------------|
|-3---3-3---3-3-5------------------|-5---5-5---5-5-5--5---5-5---5-5-5-|
|----------------------------------|----------------------------------|

|-----------------------------------|--------/7-7-------------/7-7-----|
|-----------------------------------|-5-----5---------5------5---------|
|-5--5--5--5--5--5--5--5--5--5--5--5|----------------------------------|
|-----------------------------------|----------------------------------|

|--------/7-7-------------/7-7-----|----------------------------------|
|-5-----5---------5------5---------|-5--------------------------------|
|----------------------------------|----------------------------------|
|----------------------------------|----------------------------------|
Suggest correction
Give kudos to tab author, rate the tab!
1 2 3 4 5
comments
print report bad tab
guest
You may want to rate the tab now too:
select rating
Wanna post a correction for this tab? Suggest correction