Oops, an error
Loading. Please wait.

Landshark tab

by Fang
76 views 1 this week
no commentswrite comment
1 2 3 4 5
2 more votes to show rating
add to favorites
×
Save as Personal and add changes to this tab that will be seen only by you. Learn more ›
×
You can save this tab as Personal to edit and correct it or add notes. All changes will be seen only by you. Learn more »
launch autoscroll
font size
0
reset
how to read this tab
guitar tuner
edit
Autoscroll
slow
fast
+/-
esc
set tempo
stop
Author
Difficulty
About this tab version
Didn't see any other versions. Please Rate. Was this info helpful? Yes No
First, singer counts to 8, while guitar plays feedback, then all instruments start


Verse:
e -----------------------------------------|
B -----------------------------------------|
G -----------------------------------------|
D -----------------------------------------|
A -----11-11-11-11-9-9-9-9-11-11-//////-XX-|
E -----9--9--9--9--7-7-7-7-9--9--//////-XX-|

Pick five times during the slide downwards, then hit open strings thrice or do a 
slide upwards after that.

Ad-lib with occasional random notes and feedback.

It's really based more on feeling than precision.

Chorus:
e ----------------------------|
B ----------------------------|
G ------7--------------6-6-X--|
D ----7-7-9--9-9-X-4-x-6-6-X--|
A ----7-5-9--9-9-X-4-x-4-4-X--|
E ----5---7--7-7-X-2-x--------|

Last Time:
e ----------------------------------|
B ----------------------------------|
G ------7---------------------------|
D ----7-7-9--9-9-X-11-11-////-------|
A ----7-5-9--9-9-X-11-11-////---2-4-|
E ----5---7--7-7-X-9--9--////-4-----|


Play fast, hard, and sloppy
Down pick the verse, but use alternate picking on the chorus.

/ - slide down while picking
X - muted or open strings

            
            
Suggest correction
Creating personal tab
Creating personal tab
You can edit any tab online and save it as your Personal.

You can edit, replace or remove any tab part or add personal notes – all changes will be seen only by you.

Personal tabs can be accessed anytime from any device, even offline.
Learn more »
Give kudos to tab author, rate the tab!
1 2 3 4 5
comments
print report bad tab
guest
You may want to rate the tab now too:
select rating
Wanna post a correction for this tab? Suggest correction