Oops, an error
Loading. Please wait.

La Paciencia tab

version 2
version 2

Whole song

8 views 3 this week
no commentswrite comment
1 2 3 4 5
3 more votes to show rating
add to favorites
×
Save as Personal and add changes to this tab that will be seen only by you. Learn more ›
×
You can save this tab as Personal to edit and correct it or add notes. All changes will be seen only by you. Learn more »
launch autoscroll
font size
0
reset
how to read this tab
guitar tuner
edit
Autoscroll
slow
fast
+/-
esc
set tempo
stop
Intro: D - C-A-G - E


D         C A G           E
En algun lado la habré dejado
D          C A  G                 E
es mi paciencia, que hoy no la encuentro
       G           Em        G
y de buscar se me crispan los nervios
   Em        D      C
y tiro todo
       Em         G          Em
y no está, ya busqué en todos lados
  G          D      C       G
rompo todo


D         C A G           E
en los cajones o en otro lado
D        C A G             E
de despistado la habré guardado
      G        Em         G
en el baño, bolsillos, placard
      Em         D      C
ya revisé todo
    Em            G         Em
seguro que alguien me la sacó
    G          D     C      G
me pongo loco.


A  A-B  B-C#  C#-D  D

y al toque despues del ultimo D hace:

e|----------------------------------------------------
B|----------------------------------------------------
G|--------------------------2-------------------------
D|-----------------2--4--5-----5--4--2----------------
A|--------2--4--5-----------------------5--4--2-------
E|--3--5-----------------------------------------5----


de nuevo:   A  A-B  B-C#  C#-D  D


e|----------------------------------------------------
B|----------------------------------------------------
G|--------------------------2-------------------------
D|-----------------2--4--5-----5--4--2----------------
A|--------2--4--5-----------------------5--4--2-------
E|--3--5-----------------------------------------5----


D      C A G             E
hago memoria pero es en vano
D          C A G                 E
la habré vendido o la habré prestado
        G        Em        G
y te pregunto denuevo si vos
         Em          D     C
no la habrás tocado
    Em         G      Em
a veces si ayudas es peor
    G          D     C
se pudre todo.


y termina:

e|----------------------------------------------------
B|----------------------------------------------------
G|--------------------------2-------------------------
D|-----------------2--4--5-----5--4--2----------------
A|--------2--4--5-----------------------5--4--2-------
E|--3--5-----------------------------------------5----


 Creo que esta bien. cualquier duda o corrección:

nahuelnegro@

Mueva Gori !

            
            
Suggest correction
Creating personal tab
Creating personal tab
You can edit any tab online and save it as your Personal.

You can edit, replace or remove any tab part or add personal notes – all changes will be seen only by you.

Personal tabs can be accessed anytime from any device, even offline.
Learn more »
Give kudos to tab author, rate the tab!
1 2 3 4 5
comments
print report bad tab
guest
Wanna post a correction for this tab? Suggest correction