Oops, an error
Loading. Please wait.

Honest Man Acoustic tab

856 views 6 this week
no commentswrite comment
1 2 3 4 5
x 3
add to favorites
×
Save as Personal and add changes to this tab that will be seen only by you. Learn more ›
×
You can save this tab as Personal to edit and correct it or add notes. All changes will be seen only by you. Learn more »
launch autoscroll
font size
0
reset
how to read this tab
guitar tuner
edit
Autoscroll
slow
fast
+/-
esc
set tempo
stop
Author
Difficulty
Honest Man -- Fantastic Negrito

It's about time Fantastic Negrito (a.k.a. Xavier Dphrepaulezz) made his Ultimate Guitar debut. "Honest Man" is
the theme song of the Amazon original "Hand of God." This is a tab of the original version of the song (solo 
acoustic).

/*
Style notes:  

This piece is all about the style, baby. Play it acoustic, no pick. Strum with your thumb for the Pre-chorus
and other soft parts. For riffs, accents, and anything you want loud, strike down with the nails of your 
fingers.

Speaking of which, keep an eye out for the ^ accent. Strike down hard and quickly mute the strings. This 
detail really brings the song together!

There are a lot of (probably improvised) variations, mainly in the chorus. I've tried to present them all; 
think of them as options to pick and choose from, not a formula to follow exactly.
*/



[Intro]
          1   2   3   4   1   2   3   4    1   2   3   4   1   2   3   4     
        e|--------------------------------|--------------------------------|
        B|--------------------------------|--------------------------------|
        G|--------------------------------|--------------------------------|  (x2)
        D|--------------------------------|--------------------------------|
        A|----------------2-------1-------|----------------3-------2-------|
        E|0-------3-----------------------|0-------3-----------------------|

                                    (Hum along)

[Verse 1]

        e|--------------------------------|--------------------------------|
        B|--------------------------------|--------------------------------|
        G|--------------------------------|--------------------------------|
        D|--------------------------------|--------------------------------|
        A|----------------2-------1-------|----------------3-------2-------|
        E|0-------3-----------------------|0-------3-----------------------|

 I'm in  love again.               No this time it's not with my hand.


        e|--------------------------------|--------------------------------|
        B|--------------------------------|--------------------------------|
        G|--------------------------------|--------------------------------|
        D|--------------------------------|--------------------------------|
        A|----------------2-------1-------|----------------3-------2-------|
        E|0-------3-----------------------|0-------3-----------------------|

Wandering murdering.                 Every time that I get the chance.


        e|--------------------------------|--------------------------------|
        B|--------------------------------|--------------------------------|
        G|--------------------------------|--------------------------------|
        D|--------------------------------|--------------------------------|
        A|----------------2-------1-------|----------------3-------2-------|
        E|0-------3-----------------------|0-------3-----------------------|

   I'm a   human baby don't ya know it, but remember first I'm a man.    You


        e|--------------------------------|--------------------------------|
        B|--------------------------------|--------------------------------|
        G|--------------------------------|--------------------------------|
        D|--------------------------------|--------------------------------|
        A|----------------2-------1-------|----------------3-------2-------|
        E|0-------3-----------------------|0-------3-----------------------|

  painted pictures for me         that I refuse to understand.


[Pre-Chorus]

          1 + 2 + 3 + 4 + 1 + 2 + 3 + 4 +  1 + 2 + 3 + 4 + 1 + 2 + 3 + 4 + 
        e|--------------------------------|--------------------------------|
        B|2-------2-------2-------2-----2-|2-----2-2-------2-----2---2-----|
        G|0-------0-------0-------0-------|0-------0-------0---------------|
        D|2---2---2---2---2---2---2---2---|2---2---2---2---2---2---2---2---|
        A|0---0---0---0---0---0---0---0---|0---0---0---0---0---0---0---0---|
        E|--------------------------------|--------------------------------|

              Girl I want everything           for no reason


[Chorus]

        (Play it gently on the first beat, strong on the third)

          1   +   2   +   3   +   4   +    1   +   2   +   3   +   4   +   
                          ^                                
        e|----------------0---------------|--------2---2---2---------------|
        B|----------------0---------------|--------3---3---3---------------|
        G|----------------0---------------|----------------4---------------|
        D|2---------------2---------------|----------------4---------------|
        A|2---------------2---------------|2---------------2---------------|
        E|0---------------0---------------|--------------------------------|

    Yesterday it          felt so          good


        (Play it strong! Mute the higher strings and make the low ones rattle)

          1   +   2   +   3   +   4   +    1   +   2   +   3   +   4   +   
        e|--------------------------------|--------------------------------|
        B|--------------------------------|--------------------------------|
        G|--------------------------------|--------------------------------|
        D|--------------------------------|--------------------------------|
        A|2---------------0---------------|0-------0--h2-------------------|
        E|------------------------3-------|----3-----------0---------------|

    Oh  today it          feels   so       bad



          1   +   2   +   3   +   4   +    1   +   2   +   3   +   4   +   
                          ^                                
        e|0---------------0---------------|--------2---2---2---------------|
        B|0---------------0---------------|--------3---3---3---------------|
        G|0---------------0---------------|--------4---4---4---------------|
        D|2---------------2---------------|----------------4---------------|
        A|2---------------2---------------|2---------------2---------------|
        E|0---------------0---------------|--------------------------------|

 Oh these streets         got me         wandering



          1   +   2   +   3   +   4   +    1   +   2   +   3   +   4   +   
          ^
        e|0-------------------------------|--------------------------------|
        B|0-------------------------------|--------------------------------|
        G|0-------------------------------|--------------------------------|
        D|2-------------------------------|--------------------------------|
        A|2---------------0---------------|0-------0--h2-------------------|
        E|0-----------------------3-------|----3-----------0---------------|

  Looking for my     fix     again                             I should have


          1   +   2   +   3   +   4   +    1   +   2   +   3   +   4   +   
                          ^                                ^
        e|0---------------0---------------|------------2---2---------------|
        B|0---------------0---------------|----------------3---------------|
        G|0---------------0---------------|----------------4---------------|
        D|2---------------2---------------|----------------4---------------|
        A|2---------------2---------------|2---------------2---------------|
        E|0---------------0---------------|--------------------------------|

          paid the        Chinese          girl*

        (*Alternate lyrics:  I should have prayed the night before)



          1   +   2   +   3   +   4   +    1   +   2   +   3   +   4   +   
        e|--------------------------------|--------------------------------|
        B|--------------------------------|--------------------------------|
        G|--------------------------------|--------------------------------|
        D|--------------------------------|--------------------------------|
        A|2---------------0---------------|0-------0--h2-------------------|
        E|------------------------3-------|----3-----------0---------------|

  Now I'm losing     everything I have



          1   +   2   +   3   +   4   +    1   +   2   +   3   +   4   +   
                                                           ^
        e|0-------------------------------|----------------2---------------|
        B|0-------------------------------|----------------3---------------|
        G|0-------------------------------|----------------4---------------|
        D|2---------------2---------------|----------------4---------------|
        A|2---------------2---------------|2---------------2---------------|
        E|0-------------------------------|--------------------------------|

   Yesterday it           felt so          good




          1   +   2   +   3   +   4   +    1   +   2   +   3   +   4   +   
        e|--------------------------------|--------------------------------|
        B|--------------------------------|--------------------------------|
        G|--------------------------------|--------------------------------|
        D|--------------------------------|--------------------------------|
        A|2---------------0---------------|0-------0--h2-----------2---2---|
        E|------------------------3-------|----3-----------0-------0---0---|

   Oh  today it           feels so bad


[Riff]

          1   +   2   +   3   +   4   +    1   +   2   +   3   +   4   +   
        e|--------------------------------|--------------------------------|
        B|--------------------------------|--------------------------------|
        G|----------------x-------x---x---|x-------x-----------------------|
        D|----------------x-------x---x---|x-------x-----------------------|
        A|2-------x---x---7--/9---9---9---|7-------5-------0---------------|
        E|0-------x---x---5--/7---7---7---|5-------3-----------3---0-------|


[Repeat Intro]

[Verse 2]

I'm alone again. I'm empty black and very cynical.
I can't get enough, no, my condition is critical.
Deep dark lover momma sure got enough to eat when I'm not alone cryin'.
Wandering murdering. I'll rip your heart out with my pretty smile.

[Pre-Chorus]

[Chorus]

[Bridge]

        (Intro x2)

         (Start gentle, crescendo into chorus)
          1 + 2 + 3 + 4 + 1 + 2 + 3 + 4 +  1 + 2 + 3 + 4 + 1 + 2 + 3 + 4 + 
        e|--------------------------------|--------------------------------|
        B|----------------------2---------|2-------2-------2-----2---2-----|
        G|0-------0-------0-------0-------|0-------0-------0---------------|
        D|2-------2-------2-------2-------|2---2---2---2---2---2---2---2---|
        A|0---0---0---0---0---0---0---0---|0---0---0---0---0---0---0---0---|
        E|--------------------------------|--------------------------------|

       Oh baby baby baby          Oh baby baby baby baby baaa-


[Chorus]

[Outro Riff]

                                (Slowing down)
          1   +   2   +   3   +   4   +    1   +   2   +   3   +   4   +   
        e|--------------------------------|--------------------------------|x-------|
        B|--------------------------------|--------------------------------|0-------|
        G|----------------x-------x---x---|x-------x-----------------------|x-------|
        D|----------------x-------x---x---|x-------x-----------------------|2-------|
        A|2-------2-------7--/9---9---9---|7-------5-------0-------0--h2---|2-------|
        E|0-------0-------5--/7---7---7---|5-------3-----------3-----------|0-------|



***********************************
| /   Slide up
| \   Slide down
| h   Hammer-on
| p   Pull-off
| x   Dead note
| ^   Strike and mute
***********************************

            
            
Suggest correction
Creating personal tab
Creating personal tab
You can edit any tab online and save it as your Personal.

You can edit, replace or remove any tab part or add personal notes – all changes will be seen only by you.

Personal tabs can be accessed anytime from any device, even offline.
Learn more »
Give kudos to tab author, rate the tab!
1 2 3 4 5
comments
print report bad tab
guest
You may want to rate the tab now too:
select rating
Wanna post a correction for this tab? Suggest correction