Oops, an error
Loading. Please wait.

A Toast To Bad Taste Bass Tab

443 views 1 this week
no commentswrite comment
1 2 3 4 5
3 more votes to show rating
add to favorites
launch autoscroll
font size
0
reset
guitar tuner
Autoscroll
slow
fast
+/-
esc
set tempo
stop
Help us to improve Ultimate-Guitar.com Take our survey!
×
Author
-------------------------------------------------------------------------------
		     A Toast to Bad Taste - Far-Less     
-------------------------------------------------------------------------------

Tuning: Standard

Intro
G|-------------------------------------------------------|
D|-------------------------------------------------------| x2
A|-------------------------------------------------------|
E|--3333-333-3-3-3333-333-3-3-6666-666-6-6-6666-666-6-6--|

G|-----------------------------------------------|
D|-----------------------------------------------| x2
A|-----------------------------------------------|
E|--10101010-101010-10-10-10101010-101010-10-10--|

Verse
G|-----------------------------------------------------|
D|----------7-5---------5-3----------------------------|
A|--345-55------7-3-33------5-1-11--3-3-3-0-0-0-5-5-5--|
E|-----------------------------------------------------|

G|---------------------------------------------------|
D|--------7-5---------5-3----------------------------|
A|--5-55------7-3-33------5-1-11--3-3-3-0-0-0-5-5-5--|
E|---------------------------------------------------|

Chorus
G|--------------------------------------------------|
D|--------------------------------------------------| x2
A|--5-5-5-5-5-5-0-0-0-0-0-0-3-3-3-3-3-3-11-1--00-0--|
E|--------------------------------------------------|

Verse
G|---------------------------------------------------|
D|--------7-5---------5-3----------------------------| x2
A|--5-55------7-3-33------5-1-11--3-3-3-0-0-0-5-5-5--|
E|---------------------------------------------------|

Chorus
G|--------------------------------------------------|
D|--------------------------------------------------| x4
A|--5-5-5-5-5-5-0-0-0-0-0-0-3-3-3-3-3-3-11-1--00-0--|
E|--------------------------------------------------|

Bridge
G|----------------|
D|----------------| rest then repeat
A|----------------|
E|--3333-333-3-3--|

G|-------------------------------------------------------|
D|-------------------------------------------------------| x2
A|-------------------------------------------------------|
E|--3333-333-3-3-3333-333-3-3-6666-666-6-6-6666-666-6-6--|

G|-----------------------------------------------|
D|-----------------------------------------------| x4
A|-----------------------------------------------|
E|--10101010-101010-10-10-10101010-101010-10-10--|

Chorus
G|--------------------------------------------------|
D|--------------------------------------------------| x4
A|--5-5-5-5-5-5-0-0-0-0-0-0-3-3-3-3-3-3-11-1--00-0--|
E|--------------------------------------------------|

G|--------------|
D|--------------| x2 ends on A|-5-|
A|--11-1--00-0--| 
E|--------------|

This was a tough one! enjoy!


| /  slide up
| \  slide down
| h  hammer-on
| p  pull-off
| ~  let note ring
| +  harmonic
| x  Mute note
===============================================================================

Suggest correction
Give kudos to tab author, rate the tab!
1 2 3 4 5
comments
print report bad tab
guest
You may want to rate the tab now too:
select rating
Wanna post a correction for this tab? Suggest correction