Oops, an error
Loading. Please wait.

Bastards Way Chords

3,155 views 9 this week
no commentswrite comment
1 2 3 4 5
excellent!
x 7
add to favorites
launch autoscroll
font size
0
reset
transpose
0
reset
display chords
guitar tuner
Tab Pro tools
  • play this tab
  • loop segment
  • change instrument
  • show fretboard
  • metronome
×
Best way to learn
"Bastards Way"
Autoscroll
slow
fast
+/-
esc
set tempo
stop
Difficulty
novice
~ finger tremelo
/ slide
(r) ring
(s) one strum-stop

Intro:

e--------------------------------------------------------|
b---------------3----------------------------------------|
G-----0-2-0-2/4---4-2-0-----0-2-0------------------------|
D-0-2-------------------0-2-------0-2-2h0----------------|
A-----------------------------------------2-3-333-2------|
E---------------------------------------------------3-0--|

[Verse]

Em                  C                G               D
Don't ever put your faith in me I'll only let ya down 
Em                  C                G                D
Don't pick me up when I'm stumbling just leave me on the ground 
Em             C            G                     D
And right or wrong I'll stick by the things I say 
Em                   C            G      D        G
And I couldn't give a shit if ya go or if ya stay

[Chorus]
C                    G               D                   G
I don't need your pity and I don't need your bullshit lies
C                    G               D                   Em 
And I don't' want your opinion on the faults of my life 
C                    G               C       G           Em
You can talk all you want but I won't hear a word you say 
C                       D                                  G C GDG
I'm an unforgiving prick and I'm just living the bastard's way

[Verse]

When my day has come and I lie beneath the dirt 
People gather smiles wide and poor booze upon the earth 
They'll remember all the good times but only talk about the bad 
They'll drink or say whatever it takes to keep from getting sad

[Chorus]

[Bridge/Solo]

e-------------------------------------------------------|
b---------------3---------------------------------------|
G-----0-2-0-2/4---4-2-0-----0-2-0-----------------------|
D-0-2-------------------0-2-------0-2-2h0---------------|
A-----------------------------------------2-3-333-2-----|
E---------------------------------------------------3-0-|

e-/12~12------------------------------------10----------|
b--------13-12-13-12-8----------10----10-12----12-10~---|
G----------------------7-9~9/12----12-------------------|
D-------------------------------------------------------|
A-------------------------------------------------------|
E-------------------------------------------------------|

C(r)                               Am(r)
And on my mother's doorstep lies a single red rose 
Em(r)            C(r)              G(r)                  D(r)
And a story of a broken man that a mother would never know 
C                G            D                    Em
I showed her the best and the worst days of her life 
C                G                       D                 D
And I promised her that one day I would take her for my wife
Em                        C        G                  Em 
But she knew it was all a lie the moment I left her bed 
Em(s)                   C(s)                   G         D           G
She said your boy was a son of a bitch and I'm glad he's fucking dead

[Chorus]


comments
print report bad tab
I want to post or [tab]
guest
You may want to rate the tab now too:
select rating
Please do not post tabs as comments. Select "correction" instead!