Oops, an error
Loading. Please wait.

Bastards Way Tab

7,380 views 3 this week
no commentswrite comment
1 2 3 4 5
please rate
add to favorites
launch autoscroll
font size
0
reset
how to read this tab
guitar tuner
Tab Pro tools
  • play this tab
  • loop segment
  • change instrument
  • show fretboard
  • metronome
×
Best way to learn
"Bastards Way"
Autoscroll
slow
fast
+/-
esc
set tempo
stop
Contributor
Intro:
   Em     C      G      D      Em     C      G      D
e----------------------------------------------------------|
B----------------3-----------------------------------------|
G----0-2-0-2-2/4---4-2-0-------0-2-0-----------------------|
D--2---------------------0-0h2-------0-0h2222p0------------|
A-----------------------------------------------2-3333p2p0-|
E----------------------------------------------------------|

VERSE 1:
  Em   C   G   D         Em   C   G  D  G
e--0---0---3---2--[    ]--0---0---3--2--3--|
B--0---1---3---3--[    ]--0---1---3--3--3--|
G--0---0---0---2--[ 3x ]--0---0---0--2--0--|
D--2---2---0---0--[    ]--2---2---0--0--0--|
A--2---3---2------[    ]--2---3---2-----2--|
E--0-------3------[    ]--0-------3-----3--|

CHORUS:
   C   G   D  Em          C   D   G F#/G Em   C   D   G  C  G
e--0---3---2---0--[    ]--0---2---3---3---0---0---2---3--0--3--|
B--1---3---3---0--[    ]--1---3---3---3---0---1---3---3--1--3--|
G--0---0---2---0--[ 2x ]--0---2---0---0---0---0---2---0--0--0--|
D--2---0---0---2--[    ]--2---0---0---0---2---2---0---0--2--0--|
A--3---2-------2--[    ]--3-------2---0---2---3-------2--3--2--|
E------3-------0--[    ]----------3---2---0-----------3-----3--|

VERSE 2: (played the same)

CHORUS:  (played the same)

GUITAR SOLO: (the rythm is Em  C   G   D)
e------------------------------------------------------------|
B----------------3-------------------------------------------|
G----0-2-0-2-2/4---4-2-0-------0-2-0-------------------------|
D--2---------------------0-0h2-------0-0h2222p0--------------|
A-----------------------------------------------2-3333p2p0---|
E----------------------------------------------------------0-|

e---------------------------------------------------------|
B-----17--17-------------------------------------15-------|
G------------14-12-14-12----------12-14-12-14-14----14-14-|
D--14--------------------14-12-14-------------------------|
A---------------------------------------------------------|
E---------------------------------------------------------|

PRE-BRIDGE:
   C    D   Em   C   G   D
e--0----2----0---0---3---2--|
B--1----3----0---1---3---3--|
G--0----2----0---0---0---2--|
D--2----0----2---2---0---0--|
A--3---------2---3---2------|
E------------0-------3------|


BRIDGE:
           C  D  G   C  D  G  Em  C  G  D  Em  C  D   G
e----------0--2--3---0--2--3---0--0--3--2---0--0--2---3-|
B----------1--3--3---1--3--3---0--1--3--3---0--1--3---3-|
G----------0--2--0---0--2--0---0--0--0--2---0--0--2---0-|
D----------2--0--0---2--0--0---2--2--0--0---2--2--0---0-|
A----0--2--3-----2---3-----2---2--3--2------2--3------2-|
E--3-------------3---------3---0-----3------0---------3-|

CHORUS: (played the same)

SONG: BASTARDS WAY
WRITTEN BY: FAR FROM FINISHED
TABED BY: YODER (todrunktocare@hotmail.com)
comments
We did not receive enough feedback on this tab! Please rate:
print report bad tab
1 2 3 4 5
I want to post or [tab]
guest
You may want to rate the tab now too:
select rating
Please do not post tabs as comments. Select "correction" instead!