Oops, an error
Loading. Please wait.

Lost In The Rain Bass Tab

112 views 1 this week
no commentswrite comment
1 2 3 4 5
please rate
add to favorites
launch autoscroll
font size
0
reset
guitar tuner
Autoscroll
slow
fast
+/-
esc
set tempo
stop
Help us to improve Ultimate-Guitar.com Take our survey!
×
Far From Finished
East Side of Nowhere
Lost in the Rain

Pre-Chorus:
------------------------------------|
------------------------------------|
------------------------------------| x1
--0-------3-------5-5-5-5-5-5-5-5---|

Chorus:
Part 1
-------------------------------------|
-------------------------------------|
---5-5-5-5---------------------------|
-----------5-5-5-5-3-3-3-3-3-3-3-3---|

Part 2
-------------------------------------|
-------------------55-44-2-----------|
---5-5-5-5-----------------55-44-2---|
-----------5-5-5-5-------------------|

Alternate between both

Bridge:

Same as Chorus Part 1

Verse:
-------------------------------------|
-------------------------------------|
---5-5-5-5---------------------------|
-----------5-5-5-5-2-2-2-2-3-3-3-3---|
Suggest correction
Give kudos to tab author, rate the tab!
1 2 3 4 5
comments
print report bad tab
guest
You may want to rate the tab now too:
select rating
Please do not post tabs as comments. Select "correction" instead!