Oops, an error
Loading. Please wait.

Those Never Forgotten Bass Tab

102 views 1 this week
no commentswrite comment
1 2 3 4 5
please rate
add to favorites
launch autoscroll
font size
0
reset
guitar tuner
Autoscroll
slow
fast
+/-
esc
set tempo
stop
Help us to improve Ultimate-Guitar.com Take our survey!
×
Far From Finished
East Side of Nowhere
Those Never Forgotten

Intro:

-----------|
-----2-3---|
---3-------|
-----------|


---------------------|
---3-3-3-------------|
---------0h3-3-3-3---| x3
---------------------|


---------------------|
---------------------|
---5-5-5-3-1-1-1-1---|
---------------------|

Verse:
---------------------|
---------------------|
-----------3-3-3-3---| x3
---1-1-1-1-----------|

---------------------|
---------------------|
---5-5-5-3-1-1-1-1---|
---------------------|

Repeat Whole Thing Once

Chorus:
-------------------------------------|
---3-3-3-----------------------------|
---------0h3-3-3-3-5-5-5-3-1-1-1-1---|
-------------------------------------|


-----------------------------------------|
---3-3-3----------------------22-33-22---|
---------0h3-3-3-3-3-3-3-3-33------------|
-----------------------------------------|

Repeat Whole Thing Once
Suggest correction
Give kudos to tab author, rate the tab!
1 2 3 4 5
comments
print report bad tab
guest
You may want to rate the tab now too:
select rating
Please do not post tabs as comments. Select "correction" instead!