Oops, an error
Loading. Please wait.

Sandu Tab

19 views 1 this week
no commentswrite comment
1 2 3 4 5
2 more votes to show rating
add to favorites
launch autoscroll
font size
0
reset
how to read this tab
guitar tuner
Autoscroll
slow
fast
+/-
esc
set tempo
stop
Help us to improve Ultimate-Guitar.com Take our survey!
×
Author
Difficulty
About this tab version
This version is better because this is the only one on "Ultimate-Guitar". Was this info helpful? Yes No
[Intro]
e|---------------------------------|---------------------------------|
B|--10----------10--10-------------|--10----------10--10-------------|
G|------12--12----------12--12--9--|------12--12----------12--12--9--|
D|---------------------------------|---------------------------------|
A|---------------------------------|---------------------------------|
E|---------------------------------|---------------------------------|


e|----------------------|-----------------------|--------------------------------|
B|----------------------|-----------------------|--------------------------------|
G|--9h10h9--------------|-----------------------|--------------------------------|
D|----------12------12--|-10-12-12b-12--12/-10--|-9--9-10--9--9-10--9------------|
A|--------------12------|-----------------------|----------------------10--12--12|
E|----------------------|-----------------------|--------------------------------|

[Verse]
  Am              F       Am 
e|---1-----1---1-----|---1-----1-----1---1--------------|
B|---2-----2---2-----|---2-----2-----2---2--------------|
G|-------------------|-3--------------------------------|
D|-0---0-0---0---0-3-|-----3-0---0-0---0---0-2-3-2-0----|
A|-------------------|----------------------------------|
E|-------------------|----------------------------------|

[Solo]
e|-----------------------|-------------------------------|
B|--10---------10--------|--10----10--12--13--12--10--9--|
G|--------9--------------|-------------------------------|
D|-----------------------|-------------------------------|
A|-----------------------|-------------------------------|
E|-----------------------|-------------------------------|

e|-----------------------|---------------------------|
B|--10-------------------|---------------------------|
G|--------9----9------9--|--7----7------7--9--7------|
D|-----------------------|----------10-----------10--|
A|-----------------------|---------------------------|
E|-----------------------|---------------------------|


***********************************

| /   Slide up
| \   Slide down
| h   Hummer-on
| b   Bend

***********************************
Suggest correction
Give kudos to tab author, rate the tab!
1 2 3 4 5
comments
print report bad tab
guest
You may want to rate the tab now too:
select rating
Wanna post a correction for this tab? Suggest correction