Oops, an error
Loading. Please wait.

The Hours Live tab

by Farao
22 views 3 this week
no commentswrite comment
1 2 3 4 5
3 more votes to show rating
add to favorites
×
Save as Personal and add changes to this tab that will be seen only by you. Learn more ›
×
You can save this tab as Personal to edit and correct it or add notes. All changes will be seen only by you. Learn more »
launch autoscroll
font size
0
reset
how to read this tab
guitar tuner
edit
Autoscroll
slow
fast
+/-
esc
set tempo
stop
FARAO - The Hours

***
Hi! This is the tab and lyrics for "The Hours" by Norwegian singer Farao. This is based 
on a live
presentation you can find on YouTube.

Hope you enjoy it! Thanks for your feedback :)
***


[Capo on 3rd fret]


[Verse 1]
"Give me what you've waited...                ... for"
e |---0---------0---------0---------0-------|---0---------0---------0---------0--------|
B |-----0---------0---------0---------0-----|-----0---------0---------0---------0------|
G |-------0---------0---------0---------0---|-------0---------0---------0---------0----|
D |-----------7-------------------7---------|-----------4-------------------4----------|
A |-7-------------------7-------------------|-5-------------------5--------------------|
E |-----------------------------------------|------------------------------------------|


"Every night and...                           ... day"
e |---0---------0---------0---------0-------|---0---------0---------0---------0--------|
B |-----0---------0---------0---------0-----|-----0---------0---------0---------0------|
G |-------0---------0---------0---------0---|-------0---------0---------0---------0----|
D |-----------7-------------------7---------|-----------4-------------------4----------|
A |-7-------------------7-------------------|-5-------------------5--------------------|
E |-----------------------------------------|------------------------------------------|


"All I wanted was to...                       ... close the door"
e |---0---------0---------0---------0-------|---0---------0---------0---------0--------|
B |-----0---------0---------0---------0-----|-----0---------0---------0---------0------|
G |-------0---------0---------0---------0---|-------0---------0---------0---------0----|
D |-----------7-------------------7---------|-----------4-------------------4----------|
A |-7-------------------7-------------------|-5-------------------5--------------------|
E |-----------------------------------------|------------------------------------------|


"And throw your...                             ... key..."
e |---0---------0---------0---------0-------|---0---------0---------0---------0--------|
B |-----0---------0---------0---------0-----|-----0---------0---------0---------0------|
G |-------0---------0---------0---------0---|-------0---------0---------0---------0----|
D |-----------2-------------------2---------|-----------2-------------------2----------|
A |-3-------------------3-------------------|-0-------------------0--------------------|
E |-----------------------------------------|------------------------------------------|


"... away."
e |---0---------0---------0---------0-------|---0---------0---------0---------0--------|
B |-----0---------0---------0---------0-----|-----0---------0---------0---------0------|
G |-------0---------0---------0---------0---|-------0---------0---------0---------0----|
D |-----------------------------------------|------------------------------------------|
A |-----------2-------------------2---------|-----------2-------------------5----------|
E |-0-------------------0-------------------|-0-------------------0--------------------|

[Verse 2]
"Echoes of the...                             ... sound I heard"
e |---0---------0---------0---------0-------|---0---------0---------0---------0--------|
B |-----0---------0---------0---------0-----|-----0---------0---------0---------0------|
G |-------0---------0---------0---------0---|-------0---------0---------0---------0----|
D |-----------7-------------------7---------|-----------4-------------------4----------|
A |-7-------------------7-------------------|-5-------------------5--------------------|
E |-----------------------------------------|------------------------------------------|


"I thought they were...                       ... mine."
e |---0---------0---------0---------0-------|---0---------0---------0---------0--------|
B |-----0---------0---------0---------0-----|-----0---------0---------0---------0------|
G |-------0---------0---------0---------0---|-------0---------0---------0---------0----|
D |-----------7-------------------7---------|-----------4-------------------4----------|
A |-7-------------------7-------------------|-5-------------------5--------------------|
E |-----------------------------------------|------------------------------------------|


"I could never under...                       ...stand your words"
e |---0---------0---------0---------0-------|---0---------0---------0---------0--------|
B |-----0---------0---------0---------0-----|-----0---------0---------0---------0------|
G |-------0---------0---------0---------0---|-------0---------0---------0---------0----|
D |-----------7-------------------7---------|-----------4-------------------4----------|
A |-7-------------------7-------------------|-5-------------------5--------------------|
E |-----------------------------------------|------------------------------------------|


"And now we're...                             ... out of..."
e |---0---------0---------0---------0-------|---0---------0---------0---------0--------|
B |-----0---------0---------0---------0-----|-----0---------0---------0---------0------|
G |-------0---------0---------0---------0---|-------0---------0---------0---------0----|
D |-----------2-------------------2---------|-----------2-------------------2----------|
A |-3-------------------3-------------------|-0-------------------0--------------------|
E |-----------------------------------------|------------------------------------------|


"... time.                                    Give me the..."
e |---0---------0---------0---------0-------|---0---------0---------0---------0--------|
B |-----0---------0---------0---------0-----|-----0---------0---------0---------0------|
G |-------0---------0---------0---------0---|-------0---------0---------0---------0----|
D |-----------------------------------------|------------------------------------------|
A |-----------2-------------------2---------|-----------2-------------------2----------|
E |-0-------------------0-------------------|-0-------------------0--------------------|


[Chorus]
"... hours...                                  ... that I.."
e |---0---------0---------0---------0-------|---0---------0---------0---------0--------|
B |-----0---------0---------0---------0-----|-----0---------0---------0---------0------|
G |-------0---------0---------0---------0---|-------0---------0---------0---------0----|
D |-----------2-------------------2---------|-----------2-------------------2----------|
A |-3-------------------3-------------------|-0-------------------0--------------------|
E |-----------------------------------------|------------------------------------------|


"... had and...                               ... missed. The..."
e |---0---------0---------0---------0-------|---0---------0---------0---------0--------|
B |-----0---------0---------0---------0-----|-----0---------0---------0---------0------|
G |-------2---------2---------2---------2---|-------0---------0---------0---------0----|
D |-----------3-------------------3---------|-----------2-------------------2----------|
A |-0-------------------0-------------------|-3-------------------3--------------------|
E |-----------------------------------------|------------------------------------------|


"... memories...                              ... for..."
e |---0---------0---------0---------0-------|---0---------0---------0---------0--------|
B |-----0---------0---------0---------0-----|-----0---------0---------0---------0------|
G |-------0---------0---------0---------0---|-------0---------0---------0---------0----|
D |-----------4-------------------4---------|-----------4-------------------4----------|
A |-5-------------------5-------------------|-5-------------------5--------------------|
E |-----------------------------------------|------------------------------------------|


"... now.                                     Oh, oh oh..."
e |---0---------0---------0---------0-------|---0---------0---------0---------0-------|
B |-----0---------0---------0---------0-----|-----0---------0---------0---------0-----|
G |-------0---------0---------0---------0---|-------0---------0---------0---------0---|
D |-----------7-------------------7---------|-----------7-------------------7---------|
A |-7-------------------7-------------------|-7-------------------7-------------------|
E |-----------------------------------------|-----------------------------------------|


"Only...                                      ... what I.."
e |---0---------0---------0---------0-------|---0---------0---------0---------0--------|
B |-----0---------0---------0---------0-----|-----0---------0---------0---------0------|
G |-------0---------0---------0---------0---|-------0---------0---------0---------0----|
D |-----------2-------------------2---------|-----------2-------------------2----------|
A |-3-------------------3-------------------|-0-------------------0--------------------|
E |-----------------------------------------|------------------------------------------|


"... made...                                  ... of this, you..."
e |---0---------0---------0---------0-------|---0---------0---------0---------0--------|
B |-----0---------0---------0---------0-----|-----0---------0---------0---------0------|
G |-------2---------2---------2---------2---|-------0---------0---------0---------0----|
D |-----------3-------------------3---------|-----------2-------------------2----------|
A |-0-------------------0-------------------|-3-------------------3--------------------|
E |-----------------------------------------|------------------------------------------|

"... always...                                ... showed me."
e |---0---------0---------0---------0-------|---0---------0---------0---------0--------|
B |-----0---------0---------0---------0-----|-----0---------0---------0---------0------|
G |-------0---------0---------0---------0---|-------0---------0---------0---------0----|
D |-----------4-------------------4---------|-----------4-------------------4----------|
A |-5-------------------5-------------------|-5-------------------5--------------------|
E |-----------------------------------------|------------------------------------------|


[Break]
e |---0---------0---------------------------|---0---------0----------------------------|
B |-----0---------0-------------------------|-----0---------0--------------------------|
G |-------0---------0-----------------------|-------0---------0------------------------|
D |-----------4-----------------------------|-----------2------------------------------|
A |-2-------------------2-~-----------------|-0-------------------0-~------------------|
E |-----------------------------------------|------------------------------------------|

e |---0---------0----------------------------|
B |-----0---------0--------------------------|
G |-------0---------0------------------------|
D |------------------------------------------|
A |-----------2------------------------------|
E |-0-------------------0-~------------------|  x2


e |---0---------0---------------------------|---0---------0----------------------------|
B |-----0---------0-------------------------|-----0---------0--------------------------|
G |-------0---------0-----------------------|-------0---------0------------------------|
D |-----------4-----------------------------|-----------2------------------------------|
A |-2-------------------2-~-----------------|-0-------------------0-~------------------|
E |-----------------------------------------|------------------------------------------|

e |---0---------0----------------------------|
B |-----0---------0--------------------------|
G |-------0---------0------------------------|
D |------------------------------------------|
A |-----------2------------------------------|
E |-0-------------------0-~------------------|

"Give me the..."
e |---0---------0----------------------------|
B |-----0---------0--------------------------|
G |-------0---------0------------------------|
D |------------------------------------------|
A |-----------2------------------------------|
E |-0-------------------0-~------------------|

[Chorus]
"... hours...                                  ... that I.."
e |---0---------0---------0---------0-------|---0---------0---------0---------0--------|
B |-----0---------0---------0---------0-----|-----0---------0---------0---------0------|
G |-------0---------0---------0---------0---|-------0---------0---------0---------0----|
D |-----------2-------------------2---------|-----------2-------------------2----------|
A |-3-------------------3-------------------|-0-------------------0--------------------|
E |-----------------------------------------|------------------------------------------|


"... had and...                               ... missed. The..."
e |---0---------0---------0---------0-------|---0---------0---------0---------0--------|
B |-----0---------0---------0---------0-----|-----0---------0---------0---------0------|
G |-------2---------2---------2---------2---|-------0---------0---------0---------0----|
D |-----------3-------------------3---------|-----------2-------------------2----------|
A |-0-------------------0-------------------|-3-------------------3--------------------|
E |-----------------------------------------|------------------------------------------|


"... memories...                              ... for..."
e |---0---------0---------0---------0-------|---0---------0---------0---------0--------|
B |-----0---------0---------0---------0-----|-----0---------0---------0---------0------|
G |-------0---------0---------0---------0---|-------0---------0---------0---------0----|
D |-----------4-------------------4---------|-----------4-------------------4----------|
A |-5-------------------5-------------------|-5-------------------5--------------------|
E |-----------------------------------------|------------------------------------------|


"... now.                                     Oh, oh oh..."
e |---0---------0---------0---------0-------|---0---------0---------0---------0-------|
B |-----0---------0---------0---------0-----|-----0---------0---------0---------0-----|
G |-------0---------0---------0---------0---|-------0---------0---------0---------0---|
D |-----------7-------------------7---------|-----------7-------------------7---------|
A |-7-------------------7-------------------|-7-------------------7-------------------|
E |-----------------------------------------|-----------------------------------------|


"Only...                                      ... what I.."
e |---0---------0---------0---------0-------|---0---------0---------0---------0--------|
B |-----0---------0---------0---------0-----|-----0---------0---------0---------0------|
G |-------0---------0---------0---------0---|-------0---------0---------0---------0----|
D |-----------2-------------------2---------|-----------2-------------------2----------|
A |-3-------------------3-------------------|-0-------------------0--------------------|
E |-----------------------------------------|------------------------------------------|


"... made...                                  ... of this, you..."
e |---0---------0---------0---------0-------|---0---------0---------0---------0--------|
B |-----0---------0---------0---------0-----|-----0---------0---------0---------0------|
G |-------2---------2---------2---------2---|-------0---------0---------0---------0----|
D |-----------3-------------------3---------|-----------2-------------------2----------|
A |-0-------------------0-------------------|-3-------------------3--------------------|
E |-----------------------------------------|------------------------------------------|

"... always...                                ... showed me."
e |---0---------0---------0---------0-------|---0---------0---------0---------0--------|
B |-----0---------0---------0---------0-----|-----0---------0---------0---------0------|
G |-------0---------0---------0---------0---|-------0---------0---------0---------0----|
D |-----------4-------------------4---------|-----------4-------------------4----------|
A |-5-------------------5-------------------|-5-------------------5--------------------|
E |-----------------------------------------|------------------------------------------|


"... how.                                     Oh, oh oh..."
e |---0---------0---------0---------0-------|---0---------0---------0---------0-------|
B |-----0---------0---------0---------0-----|-----0---------0---------0---------0-----|
G |-------0---------0---------0---------0---|-------0---------0---------0---------0---|
D |-----------7-------------------7---------|-----------7-------------------7---------|
A |-7-------------------7-------------------|-7-------------------7-------------------|
E |-----------------------------------------|-----------------------------------------|


[Final verses]
"Now I know what to..."
e |---0---------0---------0---------0--------|
B |-----0---------0---------0---------0------|
G |-------0---------0---------0---------0----|
D |------------------------------------------|
A |-----------2-------------------2----------|
E |-0-------------------0--------------------|  x2


"... say. I would give..."
e |---0---------0---------0---------0--------|
B |-----0---------0---------0---------0------|
G |-------0---------0---------0---------0----|
D |------------------------------------------|
A |-----------2-------------------2----------|
E |-3-------------------3--------------------|  x2


"All my time for the..."
e |---0---------0---------0---------0--------|
B |-----0---------0---------0---------0------|
G |-------0---------0---------0---------0----|
D |------------------------------------------|
A |-----------2-------------------2----------|
E |-0-------------------0--------------------|  x2


"... day. But the..."
e |---0---------0---------0---------0--------|
B |-----0---------0---------0---------0------|
G |-------0---------0---------0---------0----|
D |------------------------------------------|
A |-----------2-------------------2----------|
E |-3-------------------3--------------------|  x2


"... hours they..."
e |---0---------0---------0---------0--------|
B |-----0---------0---------0---------0------|
G |-------0---------0---------0---------0----|
D |-----------4-------------------4----------|
A |-2-------------------2--------------------|
E |------------------------------------------|


"... fly..."
e |---0---------0---------0---------0--------|
B |-----0---------0---------0---------0------|
G |-------0---------0---------0---------0----|
D |-----------2-------------------2----------|
A |-0-------------------0--------------------|
E |------------------------------------------|


"... away. And the"
e |---0---------0----------0--------0--------|
B |-----0---------0----------0--------0------|
G |-------0---------0----------0--------0----|
D |------------------------------------------|
A |-----------2-------------------2----------|
E |-0-------------------0--------------------|  x2


"... end of..."
e |---0---------0---------0---------0--------|
B |-----0---------0---------0---------0------|
G |-------0---------0---------0---------0----|
D |-----------4-------------------4----------|
A |-2-------------------2--------------------|
E |------------------------------------------|


"... time..."
e |---0---------0---------0---------0--------|
B |-----0---------0---------0---------0------|
G |-------0---------0---------0---------0----|
D |-----------2-------------------2----------|
A |-0-------------------0--------------------|
E |------------------------------------------|


"... is coming your..."
e |---0---------0---------0---------0--------|
B |-----0---------0---------0---------0------|
G |-------0---------0---------0---------0----|
D |-----------2-------------------2----------|
A |-0-------------------0--------------------|
E |------------------------------------------|


"... way."
e |---0---------0----------0--------0--------|
B |-----0---------0----------0--------0------|
G |-------0---------0----------0--------0----|
D |------------------------------------------|
A |-----------2-------------------2----------|
E |-0-------------------0--------------------|  x2


[Repeat]

 
Suggest correction
Creating personal tab
Creating personal tab
You can edit any tab online and save it as your Personal.

You can edit, replace or remove any tab part or add personal notes – all changes will be seen only by you.

Personal tabs can be accessed anytime from any device, even offline.
Learn more »
Give kudos to tab author, rate the tab!
1 2 3 4 5
comments
print report bad tab
guest
Wanna post a correction for this tab? Suggest correction