Oops, an error
Loading. Please wait.

Eighty Eights Tab

2,622 views 1 this week
2 commentsread comments
1 2 3 4 5
please rate
add to favorites
launch autoscroll
font size
0
reset
how to read this tab
guitar tuner
Autoscroll
slow
fast
+/-
esc
set tempo
stop
Help us to improve Ultimate-Guitar.com Take our survey!
×
Author
Eighty-Eight's by Farewell
I think it turned out pretty decent. Tabbed by Noel C.
Enjoy.
June 25, 2009

Legend:
X = scratch string(s)
. = palm mute
\ or / = slide up or down
~ = let note(s) ring

Intro:

e|---------------------------------------------------------------------------|
B|---------------------------------------------------------------------------|
G|---------------------------------------------------------------------------|
D|-2-2------6-6-6--9-9-9--4-4-4------4--4-4-/-6-\-4-4------------------------|
A|-2-2------6-6-6--9-9-9--4-4-4------4--4-4-/-6-\-4-4----(x2)----------------|
D|-2-2------6-6-6--9-9-9--4-4-4------4--4-4-/-6-\-4-4------------------------|

Verse:

(I got a...can)
e|---------------------------------------------------------------------------|
B|---------------------------------------------------------------------------|
G|---------------------------------------------------------------------------|
D|-2-----------------------------------------------------------6~\-----------|
A|-2-----------------------------------------------------------6~\-----------|
D|-2--2-2-2-2-2-2-2-/-6-6-6-\-4-4-4-4-4-4-4-4-4-4-4-4-4-4-4-4--6~\-----------|
   .  . . . . . . .   . . .   . . . . . . . . . . . . . . . .

(See alright...)
e|---------------------------------------------------------------------------|
B|---------------------------------------------------------------------------|
G|------------------------------4-4-4---------------------------4-4-4--------|
D|-2-2-2-2-2-2-2-2--6-6-6--4-4--4-4-4--4-4-4-4-4-4-4-4-4-4-4-4--4-4-4--------|
A|-2-2-2-2-2-2-2-2--6-6-6--4-4---------4-4-4-4-4-4-4-4-4-4-4-4--------(x2)---|
D|-2-2-2-2-2-2-2-2--6-6-6--4-4---------4-4-4-4-4-4-4-4-4-4-4-4---------------| 
   . . . . . . . .  . . .  . .         . . . . . . . . . . . .

(Hold each other tight)
e|-----------------------------|
B|-----------------------------|
G|---------------4-4-4-4-4-4-4-| Release palm mute
D|---------------4-4-4-4-4-4-4-|
A|-2-2-2-2-2-2-2-2-2-2-2-2-2-2-|
D|-2-2-2-2-2-2-2-2-2-2-2-2-2-2-|
   
   . . . . .  

Pre-chorus:

(We're gonna...goodnight)
e|-----------------------------------------------------------------|
B|-----------------------------------------------------------------|
G|-----------------------------------------------------------------|
D|--2-2-X-X-2-2-2---2-2-X-X-2-2-2---2-2-X-X-2-2-2---2-2-X-X-2-2-2--|
A|--2-2-X-X-2-2-2---2-2-X-X-2-2-2---2-2-X-X-2-2-2---2-2-X-X-2-2-2--|
D|--2-2-X-X-2-2-2---2-2-X-X-2-2-2---2-2-X-X-2-2-2---2-2-X-X-2-2-2--|

(I wish...time)
e|-----------------------------------------------------------------X-X-X-X--|
B|-----------------------------------------------------------------X-X-X-X--|
G|-----------------------------------------------------------------X-X-X-X--|
D|--4-4-X-X-4-4-4---4-4-X-X-4-4-4---4-4-X-X-4-4-4---4-4-X-X-4-4-4--X-X-X-X--|
A|--4-4-X-X-4-4-4---4-4-X-X-4-4-4---4-4-X-X-4-4-4---4-4-X-X-4-4-4--X-X-X-X--|
D|--4-4-X-X-4-4-4---4-4-X-X-4-4-4---4-4-X-X-4-4-4---4-4-X-X-4-4-4--X-X-X-X--|

Chorus:

(We're giving...closing skyline)
e|---------------------------------------------------------------------------|
B|---------------------------------------------------------------------------|
G|---------------------------------------------------------------------------|
D|-2-2------6-6-6--9-9-9--4-4-4------4--4-4-/-6-\-4-4------------------------|
A|-2-2------6-6-6--9-9-9--4-4-4------4--4-4-/-6-\-4-4----(x2)----------------|
D|-2-2------6-6-6--9-9-9--4-4-4------4--4-4-/-6-\-4-4------------------------|

Post-chorus:

e|-------------------------------------------|
B|-------------------------------------------|
G|-------------------------------------------|
D|---------1-1-1-----------------------1-----|
A|----------------2-2-2-------2-----2-----2--|
D|--2-2-2------------------2-----2-----------|

Verse:

(I'm alright...all night)
e|---------------------------------------------------------------------------|
B|---------------------------------------------------------------------------|
G|----------------------------------4---------------------------4-4-4--------|
D|-2-2-2-2-2-2-2-2--6-6-6--4-4-4-4--4--4-4-4-4-4-4-4-4-4-4-4-4--4-4-4--------|
A|-2-2-2-2-2-2-2-2--6-6-6--4-4-4-4-----4-4-4-4-4-4-4-4-4-4-4-4---------(x2)--|
D|-2-2-2-2-2-2-2-2--6-6-6--4-4-4-4-----4-4-4-4-4-4-4-4-4-4-4-4---------------|
   . . . . . . . .  . . .  . . . .     . . . . . . . . . . . .

(Ending right)
e|---------------------------------------|
B|---------------------------------------|
G|---------------4-4-4-4-4-4-4-----------| Release palm mute
D|---------------4-4-4-4-4-4-4-----------|
A|-2-2-2-2-2-2-2-2-2-2-2-2-2-2-----------|
D|-2-2-2-2-2-2-2-2-2-2-2-2-2-2----12/----|
   
   . . . . .

Pre-chorus:

(We're gonna...goodnight)
e|-----------------------------------------------------------------|
B|-----------------------------------------------------------------|
G|-----------------------------------------------------------------|
D|--2-2-X-X-2-2-2---2-2-X-X-2-2-2---2-2-X-X-2-2-2---2-2-X-X-2-2-2--|
A|--2-2-X-X-2-2-2---2-2-X-X-2-2-2---2-2-X-X-2-2-2---2-2-X-X-2-2-2--|
D|--2-2-X-X-2-2-2---2-2-X-X-2-2-2---2-2-X-X-2-2-2---2-2-X-X-2-2-2--|

(I wish...time)
e|-----------------------------------------------------------------X-X-X-X--|
B|-----------------------------------------------------------------X-X-X-X--|
G|-----------------------------------------------------------------X-X-X-X--|
D|--4-4-X-X-4-4-4---4-4-X-X-4-4-4---4-4-X-X-4-4-4---4-4-X-X-4-4-4--X-X-X-X--|
A|--4-4-X-X-4-4-4---4-4-X-X-4-4-4---4-4-X-X-4-4-4---4-4-X-X-4-4-4--X-X-X-X--|
D|--4-4-X-X-4-4-4---4-4-X-X-4-4-4---4-4-X-X-4-4-4---4-4-X-X-4-4-4--X-X-X-X--|

Chorus:

(We're giving...closing skyline)
e|---------------------------------------------------------------------------|
B|---------------------------------------------------------------------------|
G|---------------------------------------------------------------------------|
D|-2-2------6-6-6--9-9-9--4-4-4------4--4-4-/-6-\-4-4------------------------|
A|-2-2------6-6-6--9-9-9--4-4-4------4--4-4-/-6-\-4-4----(x2)----------------|
D|-2-2------6-6-6--9-9-9--4-4-4------4--4-4-/-6-\-4-4------------------------|

Interlude:

(Through all...somehow)
e|------------------------------------------X-X-X-X-|
B|------------------------------------------X-X-X-X-|
G|------------------------------------------X-X-X-X-|
D|-9----------4----------6----------2-------X-X-X-X-|(x2)
A|-9-(x14)----4-(x14)----6-(x14)----2-(x14)-X-X-X-X-|
D|-9----------4----------6----------2-------X-X-X-X-|

Post-interlude:

e|--------------------|
B|--------------------|
G|--------------------|
D|--4--4-4-/-6-\-4-4--|
A|--4--4-4-/-6-\-4-4--|
D|--4--4-4-/-6-\-4-4--|

Final-chorus:

(We're giving...state line)
e|---------------------------------------------------------------|
B|---------------------------------------------------------------|
G|---------------------------------------------------------------|
D|-2-2-2-2-2-2-2-2-6-6-6-9-9-9-4-4-4-4-4-4-4-4-4-4-4-4-----------|
A|-2-2-2-2-2-2-2-2-6-6-6-9-9-9-4-4-4-4-4-4-4-4-4-4-4-4-----------|
D|-2-2-2-2-2-2-2-2-6-6-6-9-9-9-4-4-4-4-4-4-4-4-4-4-4-4----4~--3~-|

(We're livin'...skyline)
e|---------------------------------------------------------------|
B|---------------------------------------------------------------|
G|--------------------------------------------------------9~--8~-|
D|-2-2-2-2-2-2-2-2-6-6-6-9-9-9-4-4-4-4-4-4-4-4-4-4-4-4----9~--8~-|
A|-2-2-2-2-2-2-2-2-6-6-6-9-9-9-4-4-4-4-4-4-4-4-4-4-4-4----7~--6~-|
D|-2-2-2-2-2-2-2-2-6-6-6-9-9-9-4-4-4-4-4-4-4-4-4-4-4-4-----------|

Outro:

e|----------------------------|
B|----------------------------|
G|----------------------------|
D|--2-2-2~---6-6-6~---9-\-4~--|
A|--2-2-2~---6-6-6~---9-\-4~--|
D|--2-2-2~---6-6-6~---9-\-4~--|

Suggest correction
What's this?
You can suggest a correction to this tab. Community and Mods will review your correction and vote to approve or reject it.
comments
We did not receive enough feedback on this tab! Please rate:
print report bad tab
1 2 3 4 5
2 comments total.
+1 reply
spedracer12345 160 wrote on February 10 2010, 07:31 pm

perfect, except for one thing:
Interlude:

(Through all...somehow)
e|------------------------------------------X-X-X-X-|
B|------------------------------------------X-X-X-X-|
G|------------------------------------------X-X-X-X-|
D|-9----------4----------6----------2-------X-X-X-X-|(x2)
A|-9-(x14)----4-(x14)----6-(x14)----2-(x14)-X-X-X-X-|
D|-9----------4----------6----------2-------X-X-X-X-|

The 6's should all be 7's

Interlude:

(Through all...somehow)
e|------------------------------------------X-X-X-X-|
B|------------------------------------------X-X-X-X-|
G|------------------------------------------X-X-X-X-|
D|-9----------4----------7----------2-------X-X-X-X-|(x2)
A|-9-(x14)----4-(x14)----7-(x14)----2-(x14)-X-X-X-X-|
D|-9----------4----------7----------2-------X-X-X-X-|
thats the only thing i noticed. awesome tab! i think ive figured the intro out by ear, if you want me to tab it out, email me at schilllucas@hotmail.com

0 reply
Luzzg 22 wrote on March 10 2011, 04:23 pm

is this drop d tuning?

guest
You may want to rate the tab now too:
select rating
Please do not post tabs as comments. Select "correction" instead!