Oops, an error
Loading. Please wait.

Way Out tab

59 views 1 this week
no commentswrite comment
1 2 3 4 5
3 more votes to show rating
add to favorites
×
Save as Personal and add changes to this tab that will be seen only by you. Learn more ›
×
You can save this tab as Personal to edit and correct it or add notes. All changes will be seen only by you. Learn more »
launch autoscroll
font size
0
reset
how to read this tab
guitar tuner
edit
Autoscroll
slow
fast
+/-
esc
set tempo
stop
Song: Way Out
Artist: Farewell Milwaukee
Tabbed by: nvd88

Nice, Smooth Song. Enjoy!

Tuning: Standard

CAPO 5th fret

-------------------------------------------------------------------------------
Pretty easy song to play, mostly just chord progressions of F, C, and G.

Intro and all guitar interludes

e|----------3-----------------3-----------3-------------------------|
B|-------------1---1------0h1---1-----0h1---1-------1-------0-------|
G|---0h2---------2--------------------------------2-------0---------|
D|---3---3--------------2-----------0-----------2-------0-----------|
A|--------------------3-----------------------0---------------------|
E|--------------------------------3-------------------3-------------|

e|----------0------------3------------3-------|
B|----------1---1-1------1-1------0h1---1-----|
G|-----0h2------------------------------------|
D|---3-----------------2--------0-------------|
A|-------------------3------------------------|
E|----------------------------3---------------|


Verses

e|----------3-------------3---------------------3-------------------|
B|----------1-1-1---------1-1-1-------------0h1---1-------1-------0-|
G|---0h2------------------------------------------------2-------0---|
D|---3---3--------------2-----------------0-----------2-------0-----|
A|--------------------3-----------------------------0---------------|
E|--------------------------------------3-------------------3-------|


e|----------3-------------3---------------------3---3---3-----|
B|----------1-1-1---------1-1-1-------------0h1---1---1---1---|
G|-----2------------------------------------------------------|
D|---3------------------2-----------------0-------------------|
A|--------------------3---------------------------------------|
E|--------------------------------------3---------------------|


Chorus

"Hold on cuz you're all alone, the south ain't even your home..."

e|------3-----------3---------3-----3-----3--------|
B|------1-1--1------1-1-1-----1-1-----1-----1------|
G|------2--------2--2---------0---0-----0-----0----|
D|----2--------3------------2----------------------|
A|--0---------------------3------------------------|
E|-------------------------------------------------|

"If you come back up here lookin' for me to bail ya out..."

e|------3----------3-----------3---------3---------|
B|------1-1--1-----1-1-1-------1-1-1---- 1-1-1-----|
G|------2----------0--------2--2---------0---------|
D|----2-------------------3------------------------|
A|--0------------2---------------------2-----------|
E|-------------3---------------------3-------------|

"...you know I can't turn it down."

e|------3-----------3---------3-----3-----3--------|
B|------1-1--1------1-1-1-----1-1-----1-----1------|
G|------2--------2--2---------0---0-----0-----0----|
D|----2--------3------------2----------------------|
A|--0---------------------3------------------------|
E|-------------------------------------------------|


Bridge

Wait for me...

e|-----------|
B|-----------|
G|--0--0-----|
D|--2--0--3--|
A|--3-----3--|
E|-----3--1--|
Suggest correction
Creating personal tab
Creating personal tab
You can edit any tab online and save it as your Personal.

You can edit, replace or remove any tab part or add personal notes – all changes will be seen only by you.

Personal tabs can be accessed anytime from any device, even offline.
Learn more »
Give kudos to tab author, rate the tab!
1 2 3 4 5
comments
print report bad tab
guest
You may want to rate the tab now too:
select rating
Wanna post a correction for this tab? Suggest correction