Oops, an error
Loading. Please wait.

Manzar Naya Tab

1,765 views 24 this week
no commentswrite comment
1 2 3 4 5
1 last vote to show rating
add to favorites
launch autoscroll
font size
0
reset
how to read this tab
guitar tuner
×
Best way to learn
"Manzar Naya"
Autoscroll
slow
fast
+/-
esc
set tempo
stop
Author
Difficulty
Capo
novice
9th fret
About this tab version
Hey guys, You can also play with capo at 2nd fret and starting with Dmajor. Its actually a pretty easy song for picking if one knows the correct transition point :) Also please consider giving a rating if you like it.. Thanks :). Was this info helpful? Yes No
[Intro: Same as starting line ||x2||]

Chal chale hum kahin, Chal rahein hum nahin
e|---------------------------------|-----------------------------------------|
B|------------------0--------------|----------------------0------------------|
G|---0h2---0-------------0---------|----0h2----0---------------0-------------|  
D|-------------0--------------0----|-----------------0--------------0--------|
A|---------------------------------|-----------------------------------------|
E|---------------------------------|-----------------------------------------|

Chal kahe dil jidar, Chal jaayein hum wahin

e|----------------------------------|--------------------------------------|--------------------------------|
B|-------------------0--------------|----------------------0---------------|------------------0-------------|
G|----2h4---2-------------2---------|---2h4-----2----------------2---------|--0h2---0---------------0-------| 
D|--------------0--------------0----|----------------0----------------0----|-------------0---------------0--|
A|----------------------------------|--------------------------------------|--------------------------------|
E|----------------------------------|--------------------------------------|--------------------------------|

Pal pal har kadam, Paayenge hum ikk manzar naya

e|-----------------------------------------------|----------------------------------------------------------|
B|-------------0--------------------0------------|--------------0----------------0------0-------------------|
G|-------0------0-------------0--------0---------|----0h2--0-------0----------0-----------0-----------------|
D|---0h2----2-----2------0h2----2---------2------|------------0-------0-------------0--------0--------------|
A|-----------------------------------------------|----------------------------------------------------------|
E|-----------------------------------------------|----------------------------------------------------------|

Pal pal har kadam, Paayenge hum manzar naya
e|-----------------------------------------------|----------------------------------------------------------|
B|-------------0--------------------0------------|--------------0-----------------------0-------------------|
G|-------0------0-------------0--------0---------|----0h2--0-------0-------0h2---0--------0-----------------|
D|---0h2----2-----2------0h2----2---------2------|------------0-------0-------------0--------0--------------|
A|-----------------------------------------------|----------------------------------------------------------|
E|-----------------------------------------------|----------------------------------------------------------|

Chal raahon mein nikal, Chal manzilein badal
e|---------------------------------------------------------------------------|
B|------------------0-------------------------------------0------------------|
G|---0h2---0-------------0--------------0h2----0---------------0-------------|  
D|-------------0--------------0----------------------0--------------0--------|
A|---------------------------------------------------------------------------|
E|---------------------------------------------------------------------------|

Chal thakna rukna kya, Chal yunhi chalta chal
e|---------------------------------------------------------------------------|
B|-------------------0-------------------------------------0-----------------|
G|----2h4---2-------------2-------------0h2-----0----------------0-----------| 
D|--------------0---------------0--------------------0----------------0------|
A|---------------------------------------------------------------------------|
E|---------------------------------------------------------------------------|


Pal pal har kadam, Paayenge hum ikk manzar naya

e|-------------------------------------------------|--------------------------------------------------------|
B|-------------0--------------------0--------------|------------0-----------------0-----0-------------------|
G|-------0-------0-------------0--------0----------|---0h2--0-------0----------0-----------0----------------|
D|---0h2----2-----2------0h2-----2---------2-------|-----------0-------0-------------0--------0-------------|
A|-------------------------------------------------|--------------------------------------------------------|
E|-------------------------------------------------|--------------------------------------------------------|

Pal pal har kadam, Paayenge hum manzar naya
e|------------------------------------------------|---------------------------------------------------------|
B|-------------0--------------------0-------------|-------------0-----------------------0-------------------|
G|-------0------0-------------0--------0----------|---0h2--0-------0-------0h2---0--------0-----------------|
D|---0h2----2-----2------0h2----2---------2-------|-----------0-------0-------------0--------0--------------|
A|------------------------------------------------|---------------------------------------------------------|
E|------------------------------------------------|---------------------------------------------------------|

[Whistle Part]


e|---------------------------------------------------------------------------|
B|-------------------0-------------------------------------0-----------------|
G|----0h2---0-------------0-------------2h4-----2----------------2-----------|  ||x2|| 
D|--------------0--------------0---------------------0----------------0------|
A|---------------------------------------------------------------------------|
E|---------------------------------------------------------------------------|

[Verse]

Koi na samjhe hamari, Jo betaabiyan hain toh kyun
Kal hum kahan ho na jaane, Jo aaj hum yahaan hain toh kyun


e|---------------------------------------------------------------------------|
B|-------------------0-------------------------------------0-----------------|
G|----0h2---0-------------0-------------2h4-----2----------------2-----------|  ||x4|| 
D|--------------0--------------0---------------------0----------------0------|
A|---------------------------------------------------------------------------|
E|---------------------------------------------------------------------------|


Sun humse yeh dil hai keh raha, Pal pal yeh samay hai beh raha

e|---------------------------------------------------------------------------|
B|-------------------0-------------------------------------0-----------------|
G|----2h4---2-------------2-------------2h4-----2----------------2-----------|  
D|--------------0--------------0---------------------0----------------0------|
A|---------------------------------------------------------------------------|
E|---------------------------------------------------------------------------|


Pal pal har kadam, Paayenge hum manzar naya

e|---------------------------------------------------------------------------|
B|-------------------0-------------------------------------0-----------------|
G|----0h2---0-------------0-------------0h2-----0----------------0-----------|  
D|--------------0--------------0----------------------0----------------0-----|
A|---------------------------------------------------------------------------|
E|---------------------------------------------------------------------------|

Chal chale hum kahin, Chal rahein hum nahin
e|---------------------------------------------------------------------------|
B|------------------0-------------------------------------0------------------|
G|---0h2---0-------------0--------------0h2----0---------------0-------------|  
D|-------------0--------------0----------------------0--------------0--------|
A|---------------------------------------------------------------------------|
E|---------------------------------------------------------------------------|

Chal kahe dil jidar, Chal jaayein hum wahin

e|---------------------------------------------------------------------------|
B|-------------------0-------------------------------------0-----------------|
G|----2h4---2-------------2-------------0h2-----0----------------0-----------| 
D|--------------0--------------0---------------------0----------------0------|
A|---------------------------------------------------------------------------|
E|---------------------------------------------------------------------------|

Pal pal har kadam, Paayenge hum ikk manzar naya

e|------------------------------------------------|---------------------------------------------------------|
B|-------------0--------------------0-------------|-------------0-------------0---------0-------------------|
G|-------0------0-------------0--------0----------|---0h2--0-------0-------------0--------0-----------------|
D|---0h2----2-----2------0h2----2---------2-------|-----------0-------0-------------0--------0--------------|
A|------------------------------------------------|---------------------------------------------------------|
E|------------------------------------------------|---------------------------------------------------------|

Pal pal har kadam, Paayenge hum manzar naya
e|------------------------------------------------|---------------------------------------------------------|
B|-------------0--------------------0-------------|-------------0-----------------------0-------------------|
G|-------0------0-------------0--------0----------|---0h2--0-------0-------0h2---0--------0-----------------|
D|---0h2----2-----2------0h2----2---------2-------|-----------0-------0-------------0--------0--------------|
A|------------------------------------------------|---------------------------------------------------------|
E|------------------------------------------------|---------------------------------------------------------|

Em A D chords during the end..!!





 h   Hammer-on


************************************
Suggest correction
Give kudos to tab author, rate the tab!
1 2 3 4 5
comments
print report bad tab
guest
You may want to rate the tab now too:
select rating
Wanna post a correction for this tab? Suggest correction