Oops, an error
Loading. Please wait.
2,590 views 78 this week
no commentswrite comment
1 2 3 4 5
x 3
add to favorites
launch autoscroll
font size
0
reset
transpose
0
reset
simplify chords
display chords
guitar tuner
Autoscroll
slow
fast
+/-
esc
set tempo
stop
Help us to improve Ultimate-Guitar.com Take our survey!
×
Author
Difficulty
intermediate
Chords: Matthew Jordan MJ
Song: Jaago
Movie: Rock On 2
Singers: Farhan Akhtar, Siddharth Mahadevan
Music: Shankar-Ehsaan-Loy
Lyrics: Javed Akhtar

Youtube : https://www.youtube.com/channel/UCN8HCKYVl3UheT78pbGYnQQ
Facebook: https://www.facebook.com/Matthew.Jordan.MJ
Instagram: https://www.instagram.com/matthew.jordan07/


[Intro]

Am7
                        
E|------------------------|------------------------|------------------------|------------------------------|
B|------------------------|------------------------|------------------------|------------------------------|
G|------------------------|------------------------|------------------------|-------------5----------------|
D|------------5--2--------|-------------5--2-------|-------------5--2-------|----------------7--5--0--2----|
A|-0--0--3--0--------5--3-|-0--0--3--0--------5--3-|-0--0--3--0--------5--3-|-0--0--3--0-------------------|
E|------------------------|------------------------|------------------------|----------------------------3-|


[Chorus]

[Play Intro/Riff] OR

Am      Am7    Am     Am7    
Jaago, Jaago, Jaago, jaago

[Intro/Riff] (X1)

[Verse]

[Play Intro/Riff] OR

Am7
Koi rivaj roke, Rukna nahi, Reeton ke rasm ke aage, Jhukna nahi
Utho aur tod dalo zanjeer tum, Mita do aur phir se likho taqdeer tum

[Intro/Riff] (X2)

[Play Intro/Riff] OR

Am7
Koi rivaj roke, Rukna nahi, Reeton ke rasm ke aage, Jhukna nahi
Utho aur tod dalo zanjeer tum, Mita do aur phir se likho taqdeer tum

[Pre-Chorus] 
(You Can Also Play "Power Chords")

C           G           D         C#   
 Sab jaan jaayein tumko, Pehchan jaaye tumko
C            G            D      A7
 Haan maan jaayein tumko, Hey hey  jaago ri
C           G           D         C#   
 Sab jaan jaayein tumko, Pehchan jaaye tumko
C            G            F5 / G5 / A5 /
 Haan maan jaayein tumko, Hey...

[Chorus]

[Play Intro/Riff] OR

Am      Am7    Am     Am7    
Jaago, Jaago, Jaago, jaago

[Solo]

[Play Intro/Riff] (x2) OR 

| Am7 |  |  | Dsus2 | (X2) OR
 
E|-----------------------------------------------------------|
B|--8-8h10p8h10---8-8h10p8h10---8-8h10p8h10---5--3--1--------|
G|-----------------------------------------------------2-----|
D|-----------------------------------------------------------| 
A|-----------------------------------------------------------|
E|-----------------------------------------------------------|

[Verse]

[Play Intro/Riff] or

Am7
Tum koi gunn mein kam ho, Yeh jhooth hai, Adhikar kam pao to, Yeh loot hai
Jeena barabari se hi ab hai tumhein, Dikhana sari duniya ko hai ab yeh tumhein

[Pre-Chorus] 
(You Can Also Play "Power Chords")

C           G           D         C#   
 Sab jaan jaayein tumko, Pehchan jaaye tumko
C            G            D      A7
 Haan maan jaayein tumko, Hey hey  jaago ri
C           G           D         C#   
 Sab jaan jaayein tumko, Pehchan jaaye tumko
C            G            F5 / G5 / A5 /
 Haan maan jaayein tumko, Hey...

[Chorus]

[Play Intro/Riff] OR

Am      Am7    Am     Am7    
Jaago, Jaago, Jaago, jaago

[Solo]

[Play Intro/Riff] (x2) OR 

|A5 |  |  |  | (X2) 

then,
1&  2  &3  &  4  &    1&  2  &3  &  4 &
F#5 G5 F#5 G5 C5 B5 , F#5 G5 F#5 G5 C5  (x2)

[Bridge]

A     F      A          F              A       F     A             F
Teri zindagi, Teri hai jaise tu jiye, Aaj har khushi, Duniya mein hai tere liye
Dsus2     Bb    Dsus2       Bb                 Dsus2      Bb     Dsus2      Bb         A        
Hai abhi raat to, Gamm kya mitne ko hai andhera, Hai hum saath to, Ek din layenge savera

[Chorus]

[Play Intro/Riff] OR

A       A7     A      A7
Jaago, Jaago, Jaago, Jaago (X2)

[Outro] 
(You Can Also Play "Power Chords")

C /         G           D /       C#   
 Sab jaan jaayein tumko, Pehchan jaaye tumko
C /          G /           D  E 
 Haan maan jaayein tumko, Hey...

[Ending]

E|-------------------|
B|-------------------|
G|--5----------------|
D|-----7--5--0--2----|  (x3) 
A|-------------------|
E|-----------------3-|

A5
Suggest correction
Give kudos to tab author, rate the tab!
1 2 3 4 5
comments
print report bad tab
guest
You may want to rate the tab now too:
select rating
Wanna post a correction for this tab? Suggest correction